ISO-10303-21;
HEADER;
FILE_DESCRIPTION (( 'STEP AP203' ),
    '1' );
FILE_NAME ('57199.step',
    '2021-11-01T09:45:54',
    ( '' ),
    ( '' ),
    'SwSTEP 2.0',
    'SolidWorks 2019',
    '' );
FILE_SCHEMA (( 'CONFIG_CONTROL_DESIGN' ));
ENDSEC;

DATA;
#1 = DATE_AND_TIME ( #186, #192 ) ;
#2 = CIRCLE ( 'NONE', #75, 5.999999999999993783 ) ;
#3 = CC_DESIGN_SECURITY_CLASSIFICATION ( #70, ( #99 ) ) ;
#4 = ORIENTED_EDGE ( 'NONE', *, *, #121, .F. ) ;
#5 = EDGE_LOOP ( 'NONE', ( #50 ) ) ;
#6 = DIRECTION ( 'NONE',  ( -3.491481338843133355E-15, 1.224646799147353207E-16, -1.000000000000000000 ) ) ;
#7 = AXIS2_PLACEMENT_3D ( 'NONE', #178, #6, #176 ) ;
#8 = CARTESIAN_POINT ( 'NONE',  ( -2.484051184943620509E-30, 6.067287630905565669E-32, -7.114605360504906973E-16 ) ) ;
#9 = PLANE ( 'NONE',  #13 ) ;
#10 = DIRECTION ( 'NONE',  ( 3.491481338843133355E-15, -1.224646799147353207E-16, 1.000000000000000000 ) ) ;
#11 = DIRECTION ( 'NONE',  ( 0.0000000000000000000, 1.000000000000000000, 0.0000000000000000000 ) ) ;
#12 = CC_DESIGN_PERSON_AND_ORGANIZATION_ASSIGNMENT ( #88, #218, ( #123 ) ) ;
#13 = AXIS2_PLACEMENT_3D ( 'NONE', #97, #10, #79 ) ;
#14 = SECURITY_CLASSIFICATION_LEVEL ( 'unclassified' ) ;
#15 =( LENGTH_UNIT ( ) NAMED_UNIT ( * ) SI_UNIT ( .MILLI., .METRE. ) );
#16 = UNCERTAINTY_MEASURE_WITH_UNIT (LENGTH_MEASURE( 1.000000000000000082E-05 ), #15, 'distance_accuracy_value', 'NONE');
#17 = DIRECTION ( 'NONE',  ( -3.491481338843133355E-15, 1.224646799147353207E-16, -1.000000000000000000 ) ) ;
#18 = CC_DESIGN_DATE_AND_TIME_ASSIGNMENT ( #139, #220, ( #70 ) ) ;
#19 = APPLICATION_CONTEXT ( 'configuration controlled 3d designs of mechanical parts and assemblies' ) ;
#20 = ADVANCED_FACE ( 'NONE', ( #68 ), #140, .F. ) ;
#21 = CARTESIAN_POINT ( 'NONE',  ( 0.0000000000000000000, 0.0000000000000000000, 0.0000000000000000000 ) ) ;
#22 = FACE_OUTER_BOUND ( 'NONE', #157, .T. ) ;
#23 = FACE_OUTER_BOUND ( 'NONE', #105, .T. ) ;
#24 = FACE_OUTER_BOUND ( 'NONE', #173, .T. ) ;
#25 = CIRCLE ( 'NONE', #7, 5.000000000000000888 ) ;
#26 = DIRECTION ( 'NONE',  ( 3.491481338843133355E-15, -1.224646799147353207E-16, 1.000000000000000000 ) ) ;
#27 = MECHANICAL_CONTEXT ( 'NONE', #19, 'mechanical' ) ;
#28 = CIRCLE ( 'NONE', #58, 6.000000000000000000 ) ;
#29 =( NAMED_UNIT ( * ) PLANE_ANGLE_UNIT ( ) SI_UNIT ( $, .RADIAN. ) );
#30 = APPROVAL_ROLE ( '' ) ;
#31 = CALENDAR_DATE ( 2021, 1, 11 ) ;
#32 =( GEOMETRIC_REPRESENTATION_CONTEXT ( 3 ) GLOBAL_UNCERTAINTY_ASSIGNED_CONTEXT ( ( #16 ) ) GLOBAL_UNIT_ASSIGNED_CONTEXT ( ( #15, #29, #152 ) ) REPRESENTATION_CONTEXT ( 'NONE', 'WORKASPACE' ) );
#33 = EDGE_CURVE ( 'NONE', #78, #78, #2, .T. ) ;
#34 = ORIENTED_EDGE ( 'NONE', *, *, #61, .T. ) ;
#35 = AXIS2_PLACEMENT_3D ( 'NONE', #8, #38, #112 ) ;
#36 = EDGE_CURVE ( 'NONE', #131, #131, #43, .T. ) ;
#37 = FACE_OUTER_BOUND ( 'NONE', #188, .T. ) ;
#38 = DIRECTION ( 'NONE',  ( 3.491481338843133355E-15, -1.226656096638776648E-16, 1.000000000000000000 ) ) ;
#39 = AXIS2_PLACEMENT_3D ( 'NONE', #62, #198, #133 ) ;
#40 = CARTESIAN_POINT ( 'NONE',  ( 2.863014697851369604E-13, -1.004210375300829793E-14, 82.00000000000000000 ) ) ;
#41 = VERTEX_POINT ( 'NONE', #165 ) ;
#42 = DIRECTION ( 'NONE',  ( 4.275831445896958607E-31, 1.000000000000000000, 1.224646799147353207E-16 ) ) ;
#43 = CIRCLE ( 'NONE', #35, 5.800000000000002487 ) ;
#44 = PERSON_AND_ORGANIZATION ( #127, #147 ) ;
#45 = DATE_TIME_ROLE ( 'creation_date' ) ;
#46 = APPROVAL_STATUS ( 'not_yet_approved' ) ;
#47 = EDGE_LOOP ( 'NONE', ( #51 ) ) ;
#48 = ADVANCED_FACE ( 'NONE', ( #37, #126 ), #195, .T. ) ;
#49 = CONICAL_SURFACE ( 'NONE', #104, 6.000000000000000000, 0.7853981633974428389 ) ;
#50 = ORIENTED_EDGE ( 'NONE', *, *, #150, .T. ) ;
#51 = ORIENTED_EDGE ( 'NONE', *, *, #36, .F. ) ;
#52 = DIRECTION ( 'NONE',  ( 3.491481338843133355E-15, -1.224646799147353207E-16, 1.000000000000000000 ) ) ;
#53 = DIRECTION ( 'NONE',  ( 0.0000000000000000000, 1.000000000000000000, 0.0000000000000000000 ) ) ;
#54 = MANIFOLD_SOLID_BREP ( 'Corps-Déplacer/Copier1[2]', #110 ) ;
#55 = CARTESIAN_POINT ( 'NONE',  ( 7.681258945454893382E-14, 4.499279347985564613E-32, 22.00000000000000000 ) ) ;
#56 = CC_DESIGN_PERSON_AND_ORGANIZATION_ASSIGNMENT ( #221, #183, ( #99 ) ) ;
#57 = DIRECTION ( 'NONE',  ( 3.491481338843133355E-15, -1.226656096638776648E-16, 1.000000000000000000 ) ) ;
#58 = AXIS2_PLACEMENT_3D ( 'NONE', #211, #57, #179 ) ;
#59 = PLANE ( 'NONE',  #175 ) ;
#60 = VERTEX_POINT ( 'NONE', #167 ) ;
#61 = EDGE_CURVE ( 'NONE', #194, #194, #28, .T. ) ;
#62 = CARTESIAN_POINT ( 'NONE',  ( 0.0000000000000000000, 0.0000000000000000000, 0.0000000000000000000 ) ) ;
#63 = CC_DESIGN_APPROVAL ( #156, ( #99 ) ) ;
#64 = APPROVAL_STATUS ( 'not_yet_approved' ) ;
#65 = PERSON_AND_ORGANIZATION_ROLE ( 'creator' ) ;
#66 = CLOSED_SHELL ( 'NONE', ( #90, #141, #82, #158 ) ) ;
#67 = PERSON_AND_ORGANIZATION_ROLE ( 'classification_officer' ) ;
#68 = FACE_OUTER_BOUND ( 'NONE', #47, .T. ) ;
#69 = APPROVAL_DATE_TIME ( #1, #103 ) ;
#70 = SECURITY_CLASSIFICATION ( '', '', #14 ) ;
#71 = ORIENTED_EDGE ( 'NONE', *, *, #121, .T. ) ;
#72 = ORIENTED_EDGE ( 'NONE', *, *, #125, .T. ) ;
#73 = PRODUCT_RELATED_PRODUCT_CATEGORY ( 'detail', '', ( #123 ) ) ;
#74 = DIRECTION ( 'NONE',  ( 4.275831445896958607E-31, 1.000000000000000000, 1.224646799147353207E-16 ) ) ;
#75 = AXIS2_PLACEMENT_3D ( 'NONE', #171, #17, #53 ) ;
#76 = FACE_BOUND ( 'NONE', #5, .T. ) ;
#77 = CC_DESIGN_PERSON_AND_ORGANIZATION_ASSIGNMENT ( #181, #168, ( #190 ) ) ;
#78 = VERTEX_POINT ( 'NONE', #146 ) ;
#79 = DIRECTION ( 'NONE',  ( -4.275831445896958607E-31, -1.000000000000000000, -1.224646799147353207E-16 ) ) ;
#80 = CIRCLE ( 'NONE', #85, 5.999999999999993783 ) ;
#81 = FACE_OUTER_BOUND ( 'NONE', #120, .T. ) ;
#82 = ADVANCED_FACE ( 'NONE', ( #189, #76 ), #89, .T. ) ;
#83 = APPROVAL_STATUS ( 'not_yet_approved' ) ;
#84 = APPROVAL_DATE_TIME ( #114, #163 ) ;
#85 = AXIS2_PLACEMENT_3D ( 'NONE', #128, #113, #11 ) ;
#86 = PERSON_AND_ORGANIZATION ( #127, #147 ) ;
#87 = ADVANCED_FACE ( 'NONE', ( #108, #193 ), #49, .T. ) ;
#88 = PERSON_AND_ORGANIZATION ( #127, #147 ) ;
#89 = CONICAL_SURFACE ( 'NONE', #172, 5.000000000000000888, 0.7853981633974482790 ) ;
#90 = ADVANCED_FACE ( 'NONE', ( #24 ), #59, .F. ) ;
#91 = APPROVAL_PERSON_ORGANIZATION ( #118, #163, #102 ) ;
#92 = ORIENTED_EDGE ( 'NONE', *, *, #36, .T. ) ;
#93 = PRODUCT_DEFINITION_SHAPE ( 'NONE', 'NONE',  #190 ) ;
#94 = ORIENTED_EDGE ( 'NONE', *, *, #33, .T. ) ;
#95 = DIRECTION ( 'NONE',  ( -3.491481338843133355E-15, 1.224646799147353207E-16, -1.000000000000000000 ) ) ;
#96 = CARTESIAN_POINT ( 'NONE',  ( 2.897929511239800811E-13, 3.749399456654629240E-32, 83.00000000000000000 ) ) ;
#97 = CARTESIAN_POINT ( 'NONE',  ( 7.681258945454893382E-14, 4.499279347985564613E-32, 22.00000000000000000 ) ) ;
#98 = DIRECTION ( 'NONE',  ( -3.491481338843133355E-15, 1.224646799147353207E-16, -1.000000000000000000 ) ) ;
#99 = PRODUCT_DEFINITION_FORMATION_WITH_SPECIFIED_SOURCE ( 'ANY', '', #123, .NOT_KNOWN. ) ;
#100 = DIRECTION ( 'NONE',  ( -3.491481338843133355E-15, 1.224646799147353207E-16, -1.000000000000000000 ) ) ;
#101 = CALENDAR_DATE ( 2021, 1, 11 ) ;
#102 = APPROVAL_ROLE ( '' ) ;
#103 = APPROVAL ( #83, 'UNSPECIFIED' ) ;
#104 = AXIS2_PLACEMENT_3D ( 'NONE', #164, #180, #144 ) ;
#105 = EDGE_LOOP ( 'NONE', ( #184 ) ) ;
#106 = LOCAL_TIME ( 10, 45, 54.00000000000000000, #170 ) ;
#107 = ORIENTED_EDGE ( 'NONE', *, *, #125, .F. ) ;
#108 = FACE_BOUND ( 'NONE', #159, .T. ) ;
#109 = CARTESIAN_POINT ( 'NONE',  ( 2.897929511239800811E-13, -1.016456843292303150E-14, 83.00000000000000000 ) ) ;
#110 = CLOSED_SHELL ( 'NONE', ( #48, #201, #87, #20 ) ) ;
#111 = DIRECTION ( 'NONE',  ( -3.491481338843133355E-15, 1.224646799147353207E-16, -1.000000000000000000 ) ) ;
#112 = DIRECTION ( 'NONE',  ( -4.282846870592447371E-31, -1.000000000000000000, -1.226656096638776648E-16 ) ) ;
#113 = DIRECTION ( 'NONE',  ( -3.491481338843133355E-15, 1.224646799147353207E-16, -1.000000000000000000 ) ) ;
#114 = DATE_AND_TIME ( #119, #106 ) ;
#115 = APPROVAL_DATE_TIME ( #135, #156 ) ;
#116 = COORDINATED_UNIVERSAL_TIME_OFFSET ( 1, 0, .AHEAD. ) ;
#117 = CC_DESIGN_APPROVAL ( #163, ( #190 ) ) ;
#118 = PERSON_AND_ORGANIZATION ( #127, #147 ) ;
#119 = CALENDAR_DATE ( 2021, 1, 11 ) ;
#120 = EDGE_LOOP ( 'NONE', ( #4 ) ) ;
#121 = EDGE_CURVE ( 'NONE', #41, #41, #80, .T. ) ;
#122 = EDGE_LOOP ( 'NONE', ( #208 ) ) ;
#123 = PRODUCT ( '57199', '57199', '', ( #27 ) ) ;
#124 = AXIS2_PLACEMENT_3D ( 'NONE', #40, #100, #174 ) ;
#125 = EDGE_CURVE ( 'NONE', #216, #216, #210, .T. ) ;
#126 = FACE_OUTER_BOUND ( 'NONE', #207, .T. ) ;
#127 = PERSON ( 'UNSPECIFIED', 'UNSPECIFIED', 'UNSPECIFIED', ('UNSPECIFIED'), ('UNSPECIFIED'), ('UNSPECIFIED') ) ;
#128 = CARTESIAN_POINT ( 'NONE',  ( 7.681258945454893382E-14, -2.694222958124176809E-15, 22.00000000000000000 ) ) ;
#129 = APPLICATION_CONTEXT ( 'configuration controlled 3d designs of mechanical parts and assemblies' ) ;
#130 = PLANE ( 'NONE',  #206 ) ;
#131 = VERTEX_POINT ( 'NONE', #132 ) ;
#132 = CARTESIAN_POINT ( 'NONE',  ( -4.968102369887241017E-30, -5.800000000000002487, -1.422921072100981395E-15 ) ) ;
#133 = DIRECTION ( 'NONE',  ( 1.000000000000000000, 0.0000000000000000000, 0.0000000000000000000 ) ) ;
#134 = COORDINATED_UNIVERSAL_TIME_OFFSET ( 1, 0, .AHEAD. ) ;
#135 = DATE_AND_TIME ( #199, #166 ) ;
#136 = MANIFOLD_SOLID_BREP ( 'Corps-Déplacer/Copier1[1]', #66 ) ;
#137 = COORDINATED_UNIVERSAL_TIME_OFFSET ( 1, 0, .AHEAD. ) ;
#138 = LOCAL_TIME ( 10, 45, 54.00000000000000000, #151 ) ;
#139 = DATE_AND_TIME ( #31, #138 ) ;
#140 = PLANE ( 'NONE',  #214 ) ;
#141 = ADVANCED_FACE ( 'NONE', ( #81, #161 ), #213, .T. ) ;
#142 = EDGE_LOOP ( 'NONE', ( #72 ) ) ;
#143 = CARTESIAN_POINT ( 'NONE',  ( 6.982962677686220365E-16, -6.000000000000000000, 0.1999999999999986788 ) ) ;
#144 = DIRECTION ( 'NONE',  ( -4.333342374871280669E-31, -1.000000000000000000, -1.219727444046192488E-16 ) ) ;
#145 = DIRECTION ( 'NONE',  ( -4.275831445896958607E-31, -1.000000000000000000, -1.224646799147353207E-16 ) ) ;
#146 = CARTESIAN_POINT ( 'NONE',  ( 7.681258945454893382E-14, 5.999999999999991118, 22.00000000000000000 ) ) ;
#147 = ORGANIZATION ( 'UNSPECIFIED', 'UNSPECIFIED', '' ) ;
#148 = CARTESIAN_POINT ( 'NONE',  ( 2.863014697851369604E-13, 5.999999999999991118, 82.00000000000000000 ) ) ;
#149 = APPLICATION_PROTOCOL_DEFINITION ( 'international standard', 'config_control_design', 1994, #19 ) ;
#150 = EDGE_CURVE ( 'NONE', #60, #60, #25, .T. ) ;
#151 = COORDINATED_UNIVERSAL_TIME_OFFSET ( 1, 0, .AHEAD. ) ;
#152 =( NAMED_UNIT ( * ) SI_UNIT ( $, .STERADIAN. ) SOLID_ANGLE_UNIT ( ) );
#153 = PERSON_AND_ORGANIZATION ( #127, #147 ) ;
#154 = CC_DESIGN_APPROVAL ( #103, ( #70 ) ) ;
#155 = DESIGN_CONTEXT ( 'detailed design', #129, 'design' ) ;
#156 = APPROVAL ( #64, 'UNSPECIFIED' ) ;
#157 = EDGE_LOOP ( 'NONE', ( #185 ) ) ;
#158 = ADVANCED_FACE ( 'NONE', ( #22 ), #130, .F. ) ;
#159 = EDGE_LOOP ( 'NONE', ( #92 ) ) ;
#160 = LOCAL_TIME ( 10, 45, 54.00000000000000000, #137 ) ;
#161 = FACE_OUTER_BOUND ( 'NONE', #142, .T. ) ;
#162 = DIRECTION ( 'NONE',  ( -3.491481338843133355E-15, 1.224646799147353207E-16, -1.000000000000000000 ) ) ;
#163 = APPROVAL ( #46, 'UNSPECIFIED' ) ;
#164 = CARTESIAN_POINT ( 'NONE',  ( 6.982962677686246003E-16, -2.453312193277548858E-17, 0.1999999999999994005 ) ) ;
#165 = CARTESIAN_POINT ( 'NONE',  ( 7.681258945454893382E-14, 5.999999999999991118, 22.00000000000000000 ) ) ;
#166 = LOCAL_TIME ( 10, 45, 54.00000000000000000, #134 ) ;
#167 = CARTESIAN_POINT ( 'NONE',  ( 2.897929511239800811E-13, 4.999999999999990230, 83.00000000000000000 ) ) ;
#168 = PERSON_AND_ORGANIZATION_ROLE ( 'creator' ) ;
#169 = APPROVAL_PERSON_ORGANIZATION ( #200, #156, #30 ) ;
#170 = COORDINATED_UNIVERSAL_TIME_OFFSET ( 1, 0, .AHEAD. ) ;
#171 = CARTESIAN_POINT ( 'NONE',  ( 7.681258945454893382E-14, -2.694222958124176809E-15, 22.00000000000000000 ) ) ;
#172 = AXIS2_PLACEMENT_3D ( 'NONE', #109, #95, #215 ) ;
#173 = EDGE_LOOP ( 'NONE', ( #71 ) ) ;
#174 = DIRECTION ( 'NONE',  ( 0.0000000000000000000, 1.000000000000000000, 0.0000000000000000000 ) ) ;
#175 = AXIS2_PLACEMENT_3D ( 'NONE', #55, #26, #145 ) ;
#176 = DIRECTION ( 'NONE',  ( 0.0000000000000000000, 1.000000000000000000, 0.0000000000000000000 ) ) ;
#177 = CC_DESIGN_PERSON_AND_ORGANIZATION_ASSIGNMENT ( #86, #67, ( #70 ) ) ;
#178 = CARTESIAN_POINT ( 'NONE',  ( 2.897929511239800811E-13, -1.016456843292303150E-14, 83.00000000000000000 ) ) ;
#179 = DIRECTION ( 'NONE',  ( -4.333342374871280669E-31, -1.000000000000000000, -1.219727444046192488E-16 ) ) ;
#180 = DIRECTION ( 'NONE',  ( 3.491481338843133355E-15, -1.226656096638776648E-16, 1.000000000000000000 ) ) ;
#181 = PERSON_AND_ORGANIZATION ( #127, #147 ) ;
#182 = APPLICATION_PROTOCOL_DEFINITION ( 'international standard', 'config_control_design', 1994, #129 ) ;
#183 = PERSON_AND_ORGANIZATION_ROLE ( 'design_supplier' ) ;
#184 = ORIENTED_EDGE ( 'NONE', *, *, #33, .F. ) ;
#185 = ORIENTED_EDGE ( 'NONE', *, *, #150, .F. ) ;
#186 = CALENDAR_DATE ( 2021, 1, 11 ) ;
#187 = EDGE_LOOP ( 'NONE', ( #107 ) ) ;
#188 = EDGE_LOOP ( 'NONE', ( #94 ) ) ;
#189 = FACE_OUTER_BOUND ( 'NONE', #187, .T. ) ;
#190 = PRODUCT_DEFINITION ( 'UNKNOWN', '', #99, #155 ) ;
#191 = DIRECTION ( 'NONE',  ( 4.275831445896958607E-31, 1.000000000000000000, 1.224646799147353207E-16 ) ) ;
#192 = LOCAL_TIME ( 10, 45, 54.00000000000000000, #116 ) ;
#193 = FACE_OUTER_BOUND ( 'NONE', #122, .T. ) ;
#194 = VERTEX_POINT ( 'NONE', #143 ) ;
#195 = CYLINDRICAL_SURFACE ( 'NONE', #203, 5.999999999999992895 ) ;
#196 = ADVANCED_BREP_SHAPE_REPRESENTATION ( '57199', ( #136, #54, #39 ), #32 ) ;
#197 = AXIS2_PLACEMENT_3D ( 'NONE', #21, #111, #42 ) ;
#198 = DIRECTION ( 'NONE',  ( 0.0000000000000000000, 0.0000000000000000000, 1.000000000000000000 ) ) ;
#199 = CALENDAR_DATE ( 2021, 1, 11 ) ;
#200 = PERSON_AND_ORGANIZATION ( #127, #147 ) ;
#201 = ADVANCED_FACE ( 'NONE', ( #23 ), #9, .T. ) ;
#202 = DATE_AND_TIME ( #101, #160 ) ;
#203 = AXIS2_PLACEMENT_3D ( 'NONE', #212, #98, #191 ) ;
#204 = SHAPE_DEFINITION_REPRESENTATION ( #93, #196 ) ;
#205 = DIRECTION ( 'NONE',  ( -4.275831445896958607E-31, -1.000000000000000000, -1.224646799147353207E-16 ) ) ;
#206 = AXIS2_PLACEMENT_3D ( 'NONE', #96, #162, #74 ) ;
#207 = EDGE_LOOP ( 'NONE', ( #34 ) ) ;
#208 = ORIENTED_EDGE ( 'NONE', *, *, #61, .F. ) ;
#209 = CARTESIAN_POINT ( 'NONE',  ( -1.068961779941895936E-30, 3.749413200789030543E-32, -3.061628220805801239E-16 ) ) ;
#210 = CIRCLE ( 'NONE', #124, 6.000000000000001776 ) ;
#211 = CARTESIAN_POINT ( 'NONE',  ( 6.982962677686246003E-16, -2.453312193277548858E-17, 0.1999999999999994005 ) ) ;
#212 = CARTESIAN_POINT ( 'NONE',  ( 0.0000000000000000000, 0.0000000000000000000, 0.0000000000000000000 ) ) ;
#213 = CYLINDRICAL_SURFACE ( 'NONE', #197, 5.999999999999998224 ) ;
#214 = AXIS2_PLACEMENT_3D ( 'NONE', #209, #52, #205 ) ;
#215 = DIRECTION ( 'NONE',  ( 0.0000000000000000000, 1.000000000000000000, 0.0000000000000000000 ) ) ;
#216 = VERTEX_POINT ( 'NONE', #148 ) ;
#217 = APPROVAL_ROLE ( '' ) ;
#218 = PERSON_AND_ORGANIZATION_ROLE ( 'design_owner' ) ;
#219 = CC_DESIGN_PERSON_AND_ORGANIZATION_ASSIGNMENT ( #153, #65, ( #99 ) ) ;
#220 = DATE_TIME_ROLE ( 'classification_date' ) ;
#221 = PERSON_AND_ORGANIZATION ( #127, #147 ) ;
#222 = APPROVAL_PERSON_ORGANIZATION ( #44, #103, #217 ) ;
#223 = CC_DESIGN_DATE_AND_TIME_ASSIGNMENT ( #202, #45, ( #190 ) ) ;
ENDSEC;
END-ISO-10303-21;
