ISO-10303-21;
HEADER;
FILE_DESCRIPTION (( 'STEP AP203' ),
    '1' );
FILE_NAME ('57198.step',
    '2021-11-01T09:45:54',
    ( '' ),
    ( '' ),
    'SwSTEP 2.0',
    'SolidWorks 2019',
    '' );
FILE_SCHEMA (( 'CONFIG_CONTROL_DESIGN' ));
ENDSEC;

DATA;
#1 = APPROVAL_ROLE ( '' ) ;
#2 = CC_DESIGN_PERSON_AND_ORGANIZATION_ASSIGNMENT ( #213, #193, ( #203 ) ) ;
#3 = FACE_OUTER_BOUND ( 'NONE', #27, .T. ) ;
#4 = FACE_OUTER_BOUND ( 'NONE', #18, .T. ) ;
#5 = CONICAL_SURFACE ( 'NONE', #53, 4.000000000000000888, 0.7853981633974410625 ) ;
#6 = APPROVAL_PERSON_ORGANIZATION ( #169, #29, #114 ) ;
#7 = CARTESIAN_POINT ( 'NONE',  ( 6.982962677686246003E-16, -2.453312193277548858E-17, 0.1999999999999994005 ) ) ;
#8 = PERSON_AND_ORGANIZATION ( #210, #60 ) ;
#9 = DIRECTION ( 'NONE',  ( 0.0000000000000000000, 1.000000000000000000, 0.0000000000000000000 ) ) ;
#10 = VERTEX_POINT ( 'NONE', #74 ) ;
#11 = DIRECTION ( 'NONE',  ( -3.491481338843133355E-15, 1.224646799147353207E-16, -1.000000000000000000 ) ) ;
#12 = COORDINATED_UNIVERSAL_TIME_OFFSET ( 1, 0, .AHEAD. ) ;
#13 = EDGE_CURVE ( 'NONE', #38, #38, #189, .T. ) ;
#14 = DATE_AND_TIME ( #165, #103 ) ;
#15 = AXIS2_PLACEMENT_3D ( 'NONE', #7, #180, #39 ) ;
#16 = VERTEX_POINT ( 'NONE', #76 ) ;
#17 = AXIS2_PLACEMENT_3D ( 'NONE', #182, #160, #184 ) ;
#18 = EDGE_LOOP ( 'NONE', ( #151 ) ) ;
#19 = PERSON_AND_ORGANIZATION ( #210, #60 ) ;
#20 = CARTESIAN_POINT ( 'NONE',  ( 6.982962677686246003E-16, -2.453312193277548858E-17, 0.1999999999999994005 ) ) ;
#21 = FACE_OUTER_BOUND ( 'NONE', #202, .T. ) ;
#22 = CIRCLE ( 'NONE', #15, 5.000000000000000000 ) ;
#23 = DIRECTION ( 'NONE',  ( -4.237045877651918877E-31, -1.000000000000000000, -1.246832498358330099E-16 ) ) ;
#24 = PERSON_AND_ORGANIZATION ( #210, #60 ) ;
#25 = FACE_BOUND ( 'NONE', #155, .T. ) ;
#26 = CIRCLE ( 'NONE', #176, 5.000000000000000888 ) ;
#27 = EDGE_LOOP ( 'NONE', ( #85 ) ) ;
#28 = CC_DESIGN_SECURITY_CLASSIFICATION ( #71, ( #140 ) ) ;
#29 = APPROVAL ( #78, 'UNSPECIFIED' ) ;
#30 = EDGE_LOOP ( 'NONE', ( #100 ) ) ;
#31 = APPROVAL_STATUS ( 'not_yet_approved' ) ;
#32 = ORIENTED_EDGE ( 'NONE', *, *, #112, .F. ) ;
#33 = EDGE_CURVE ( 'NONE', #44, #44, #201, .T. ) ;
#34 = MECHANICAL_CONTEXT ( 'NONE', #133, 'mechanical' ) ;
#35 = DIRECTION ( 'NONE',  ( 3.491481338843133355E-15, -1.226656096638776648E-16, 1.000000000000000000 ) ) ;
#36 = ADVANCED_BREP_SHAPE_REPRESENTATION ( '57198', ( #121, #129, #159 ), #98 ) ;
#37 = FACE_OUTER_BOUND ( 'NONE', #66, .T. ) ;
#38 = VERTEX_POINT ( 'NONE', #206 ) ;
#39 = DIRECTION ( 'NONE',  ( -4.237045877651918877E-31, -1.000000000000000000, -1.246832498358330099E-16 ) ) ;
#40 = DIRECTION ( 'NONE',  ( 3.491481338843133355E-15, -1.224646799147353207E-16, 1.000000000000000000 ) ) ;
#41 = LOCAL_TIME ( 10, 45, 54.00000000000000000, #191 ) ;
#42 =( LENGTH_UNIT ( ) NAMED_UNIT ( * ) SI_UNIT ( .MILLI., .METRE. ) );
#43 =( NAMED_UNIT ( * ) PLANE_ANGLE_UNIT ( ) SI_UNIT ( $, .RADIAN. ) );
#44 = VERTEX_POINT ( 'NONE', #50 ) ;
#45 = ADVANCED_FACE ( 'NONE', ( #194 ), #122, .F. ) ;
#46 = PERSON_AND_ORGANIZATION ( #210, #60 ) ;
#47 = CC_DESIGN_PERSON_AND_ORGANIZATION_ASSIGNMENT ( #46, #135, ( #140 ) ) ;
#48 = EDGE_LOOP ( 'NONE', ( #102 ) ) ;
#49 = PERSON_AND_ORGANIZATION_ROLE ( 'creator' ) ;
#50 = CARTESIAN_POINT ( 'NONE',  ( 6.633814543801952113E-14, 4.999999999999992006, 19.00000000000000000 ) ) ;
#51 = PRODUCT_DEFINITION ( 'UNKNOWN', '', #140, #61 ) ;
#52 = CARTESIAN_POINT ( 'NONE',  ( 2.513866563967056016E-13, -8.817456953860941711E-15, 72.00000000000000000 ) ) ;
#53 = AXIS2_PLACEMENT_3D ( 'NONE', #52, #141, #57 ) ;
#54 = DIRECTION ( 'NONE',  ( 3.491481338843133355E-15, -1.224646799147353207E-16, 1.000000000000000000 ) ) ;
#55 = DIRECTION ( 'NONE',  ( 4.275831445896959482E-31, 1.000000000000000000, 1.224646799147353207E-16 ) ) ;
#56 = COORDINATED_UNIVERSAL_TIME_OFFSET ( 1, 0, .AHEAD. ) ;
#57 = DIRECTION ( 'NONE',  ( 0.0000000000000000000, 1.000000000000000000, 0.0000000000000000000 ) ) ;
#58 = CARTESIAN_POINT ( 'NONE',  ( 6.982962677686225295E-16, -5.000000000000000000, 0.1999999999999987899 ) ) ;
#59 = CARTESIAN_POINT ( 'NONE',  ( 6.633814543801952113E-14, 4.999999999999992006, 19.00000000000000000 ) ) ;
#60 = ORGANIZATION ( 'UNSPECIFIED', 'UNSPECIFIED', '' ) ;
#61 = DESIGN_CONTEXT ( 'detailed design', #142, 'design' ) ;
#62 = ORIENTED_EDGE ( 'NONE', *, *, #177, .F. ) ;
#63 = CARTESIAN_POINT ( 'NONE',  ( 2.513866563967056016E-13, -8.817456953860941711E-15, 72.00000000000000000 ) ) ;
#64 = AXIS2_PLACEMENT_3D ( 'NONE', #139, #128, #147 ) ;
#65 = CALENDAR_DATE ( 2021, 1, 11 ) ;
#66 = EDGE_LOOP ( 'NONE', ( #207 ) ) ;
#67 = DIRECTION ( 'NONE',  ( 1.000000000000000000, 0.0000000000000000000, 0.0000000000000000000 ) ) ;
#68 = ADVANCED_FACE ( 'NONE', ( #109, #21 ), #200, .T. ) ;
#69 = EDGE_LOOP ( 'NONE', ( #32 ) ) ;
#70 = DIRECTION ( 'NONE',  ( -3.491481338843133355E-15, 1.224646799147353207E-16, -1.000000000000000000 ) ) ;
#71 = SECURITY_CLASSIFICATION ( '', '', #186 ) ;
#72 = PLANE ( 'NONE',  #134 ) ;
#73 = CC_DESIGN_DATE_AND_TIME_ASSIGNMENT ( #14, #187, ( #71 ) ) ;
#74 = CARTESIAN_POINT ( 'NONE',  ( -4.111532995768752419E-30, -4.800000000000002487, -1.177589852773226016E-15 ) ) ;
#75 = FACE_OUTER_BOUND ( 'NONE', #115, .T. ) ;
#76 = CARTESIAN_POINT ( 'NONE',  ( 2.478951750578623799E-13, 4.999999999999992006, 70.99999999999998579 ) ) ;
#77 = APPLICATION_PROTOCOL_DEFINITION ( 'international standard', 'config_control_design', 1994, #133 ) ;
#78 = APPROVAL_STATUS ( 'not_yet_approved' ) ;
#79 = AXIS2_PLACEMENT_3D ( 'NONE', #161, #11, #9 ) ;
#80 = APPROVAL ( #218, 'UNSPECIFIED' ) ;
#81 = AXIS2_PLACEMENT_3D ( 'NONE', #20, #35, #23 ) ;
#82 = EDGE_LOOP ( 'NONE', ( #192 ) ) ;
#83 = AXIS2_PLACEMENT_3D ( 'NONE', #63, #136, #204 ) ;
#84 = CALENDAR_DATE ( 2021, 1, 11 ) ;
#85 = ORIENTED_EDGE ( 'NONE', *, *, #33, .T. ) ;
#86 = COORDINATED_UNIVERSAL_TIME_OFFSET ( 1, 0, .AHEAD. ) ;
#87 = FACE_OUTER_BOUND ( 'NONE', #69, .T. ) ;
#88 = CC_DESIGN_PERSON_AND_ORGANIZATION_ASSIGNMENT ( #24, #174, ( #140 ) ) ;
#89 = CARTESIAN_POINT ( 'NONE',  ( 6.633814543801952113E-14, 3.749399456654636904E-32, 19.00000000000000000 ) ) ;
#90 = PLANE ( 'NONE',  #209 ) ;
#91 = CYLINDRICAL_SURFACE ( 'NONE', #153, 4.999999999999997335 ) ;
#92 = CARTESIAN_POINT ( 'NONE',  ( 2.478951750578623799E-13, -8.694992273946204985E-15, 70.99999999999998579 ) ) ;
#93 = ADVANCED_FACE ( 'NONE', ( #87 ), #90, .F. ) ;
#94 = CC_DESIGN_APPROVAL ( #80, ( #51 ) ) ;
#95 = APPROVAL_PERSON_ORGANIZATION ( #8, #127, #144 ) ;
#96 = DATE_AND_TIME ( #97, #216 ) ;
#97 = CALENDAR_DATE ( 2021, 1, 11 ) ;
#98 =( GEOMETRIC_REPRESENTATION_CONTEXT ( 3 ) GLOBAL_UNCERTAINTY_ASSIGNED_CONTEXT ( ( #188 ) ) GLOBAL_UNIT_ASSIGNED_CONTEXT ( ( #42, #43, #148 ) ) REPRESENTATION_CONTEXT ( 'NONE', 'WORKASPACE' ) );
#99 = ADVANCED_FACE ( 'NONE', ( #3, #37 ), #107, .T. ) ;
#100 = ORIENTED_EDGE ( 'NONE', *, *, #13, .F. ) ;
#101 = CALENDAR_DATE ( 2021, 1, 11 ) ;
#102 = ORIENTED_EDGE ( 'NONE', *, *, #177, .T. ) ;
#103 = LOCAL_TIME ( 10, 45, 54.00000000000000000, #166 ) ;
#104 = DIRECTION ( 'NONE',  ( -3.491481338843133355E-15, 1.224646799147353207E-16, -1.000000000000000000 ) ) ;
#105 = FACE_OUTER_BOUND ( 'NONE', #120, .T. ) ;
#106 = FACE_OUTER_BOUND ( 'NONE', #48, .T. ) ;
#107 = CYLINDRICAL_SURFACE ( 'NONE', #64, 4.999999999999993783 ) ;
#108 = DATE_AND_TIME ( #101, #222 ) ;
#109 = FACE_BOUND ( 'NONE', #82, .T. ) ;
#110 = VERTEX_POINT ( 'NONE', #59 ) ;
#111 = AXIS2_PLACEMENT_3D ( 'NONE', #89, #211, #124 ) ;
#112 = EDGE_CURVE ( 'NONE', #10, #10, #113, .T. ) ;
#113 = CIRCLE ( 'NONE', #17, 4.800000000000002487 ) ;
#114 = APPROVAL_ROLE ( '' ) ;
#115 = EDGE_LOOP ( 'NONE', ( #190 ) ) ;
#116 = CLOSED_SHELL ( 'NONE', ( #170, #185, #163, #45 ) ) ;
#117 = ADVANCED_FACE ( 'NONE', ( #75 ), #72, .T. ) ;
#118 = CARTESIAN_POINT ( 'NONE',  ( 6.633814543801952113E-14, -2.326828918379970970E-15, 19.00000000000000000 ) ) ;
#119 = DATE_TIME_ROLE ( 'creation_date' ) ;
#120 = EDGE_LOOP ( 'NONE', ( #62 ) ) ;
#121 = MANIFOLD_SOLID_BREP ( 'Corps-Déplacer/Copier1[1]', #116 ) ;
#122 = PLANE ( 'NONE',  #126 ) ;
#123 = DIRECTION ( 'NONE',  ( 0.0000000000000000000, 1.000000000000000000, 0.0000000000000000000 ) ) ;
#124 = DIRECTION ( 'NONE',  ( -4.275831445896958607E-31, -1.000000000000000000, -1.224646799147353207E-16 ) ) ;
#125 = VERTEX_POINT ( 'NONE', #58 ) ;
#126 = AXIS2_PLACEMENT_3D ( 'NONE', #158, #104, #179 ) ;
#127 = APPROVAL ( #31, 'UNSPECIFIED' ) ;
#128 = DIRECTION ( 'NONE',  ( -3.491481338843133355E-15, 1.224646799147353207E-16, -1.000000000000000000 ) ) ;
#129 = MANIFOLD_SOLID_BREP ( 'Corps-Déplacer/Copier1[2]', #215 ) ;
#130 = CC_DESIGN_PERSON_AND_ORGANIZATION_ASSIGNMENT ( #205, #49, ( #51 ) ) ;
#131 = CIRCLE ( 'NONE', #79, 4.999999999999994671 ) ;
#132 = CC_DESIGN_APPROVAL ( #29, ( #71 ) ) ;
#133 = APPLICATION_CONTEXT ( 'configuration controlled 3d designs of mechanical parts and assemblies' ) ;
#134 = AXIS2_PLACEMENT_3D ( 'NONE', #208, #54, #196 ) ;
#135 = PERSON_AND_ORGANIZATION_ROLE ( 'design_supplier' ) ;
#136 = DIRECTION ( 'NONE',  ( -3.491481338843133355E-15, 1.224646799147353207E-16, -1.000000000000000000 ) ) ;
#137 = APPROVAL_DATE_TIME ( #138, #80 ) ;
#138 = DATE_AND_TIME ( #65, #41 ) ;
#139 = CARTESIAN_POINT ( 'NONE',  ( 0.0000000000000000000, 0.0000000000000000000, 0.0000000000000000000 ) ) ;
#140 = PRODUCT_DEFINITION_FORMATION_WITH_SPECIFIED_SOURCE ( 'ANY', '', #203, .NOT_KNOWN. ) ;
#141 = DIRECTION ( 'NONE',  ( -3.491481338843133355E-15, 1.224646799147353207E-16, -1.000000000000000000 ) ) ;
#142 = APPLICATION_CONTEXT ( 'configuration controlled 3d designs of mechanical parts and assemblies' ) ;
#143 = PLANE ( 'NONE',  #111 ) ;
#144 = APPROVAL_ROLE ( '' ) ;
#145 = DIRECTION ( 'NONE',  ( -3.491481338843133355E-15, 1.224646799147353207E-16, -1.000000000000000000 ) ) ;
#146 = AXIS2_PLACEMENT_3D ( 'NONE', #118, #70, #123 ) ;
#147 = DIRECTION ( 'NONE',  ( 4.275831445896959482E-31, 1.000000000000000000, 1.224646799147353207E-16 ) ) ;
#148 =( NAMED_UNIT ( * ) SI_UNIT ( $, .STERADIAN. ) SOLID_ANGLE_UNIT ( ) );
#149 = PERSON_AND_ORGANIZATION ( #210, #60 ) ;
#150 = CC_DESIGN_DATE_AND_TIME_ASSIGNMENT ( #156, #119, ( #51 ) ) ;
#151 = ORIENTED_EDGE ( 'NONE', *, *, #217, .T. ) ;
#152 = DIRECTION ( 'NONE',  ( 0.0000000000000000000, 0.0000000000000000000, 1.000000000000000000 ) ) ;
#153 = AXIS2_PLACEMENT_3D ( 'NONE', #181, #162, #55 ) ;
#154 = CARTESIAN_POINT ( 'NONE',  ( 0.0000000000000000000, 0.0000000000000000000, 0.0000000000000000000 ) ) ;
#155 = EDGE_LOOP ( 'NONE', ( #175 ) ) ;
#156 = DATE_AND_TIME ( #84, #167 ) ;
#157 = CARTESIAN_POINT ( 'NONE',  ( -8.551702076470480934E-31, 2.999533309458101739E-32, -2.449304821232125005E-16 ) ) ;
#158 = CARTESIAN_POINT ( 'NONE',  ( 2.513866563967056016E-13, 2.999519565323702626E-32, 72.00000000000000000 ) ) ;
#159 = AXIS2_PLACEMENT_3D ( 'NONE', #154, #152, #67 ) ;
#160 = DIRECTION ( 'NONE',  ( 3.491481338843133355E-15, -1.226656096638776648E-16, 1.000000000000000000 ) ) ;
#161 = CARTESIAN_POINT ( 'NONE',  ( 6.633814543801952113E-14, -2.326828918379970970E-15, 19.00000000000000000 ) ) ;
#162 = DIRECTION ( 'NONE',  ( -3.491481338843133355E-15, 1.224646799147353207E-16, -1.000000000000000000 ) ) ;
#163 = ADVANCED_FACE ( 'NONE', ( #105, #25 ), #5, .T. ) ;
#164 = SHAPE_DEFINITION_REPRESENTATION ( #212, #36 ) ;
#165 = CALENDAR_DATE ( 2021, 1, 11 ) ;
#166 = COORDINATED_UNIVERSAL_TIME_OFFSET ( 1, 0, .AHEAD. ) ;
#167 = LOCAL_TIME ( 10, 45, 54.00000000000000000, #86 ) ;
#168 = EDGE_CURVE ( 'NONE', #125, #125, #22, .T. ) ;
#169 = PERSON_AND_ORGANIZATION ( #210, #60 ) ;
#170 = ADVANCED_FACE ( 'NONE', ( #4 ), #143, .F. ) ;
#171 = CC_DESIGN_APPROVAL ( #127, ( #140 ) ) ;
#172 = EDGE_LOOP ( 'NONE', ( #173 ) ) ;
#173 = ORIENTED_EDGE ( 'NONE', *, *, #217, .F. ) ;
#174 = PERSON_AND_ORGANIZATION_ROLE ( 'creator' ) ;
#175 = ORIENTED_EDGE ( 'NONE', *, *, #13, .T. ) ;
#176 = AXIS2_PLACEMENT_3D ( 'NONE', #92, #145, #199 ) ;
#177 = EDGE_CURVE ( 'NONE', #16, #16, #26, .T. ) ;
#178 = APPLICATION_PROTOCOL_DEFINITION ( 'international standard', 'config_control_design', 1994, #142 ) ;
#179 = DIRECTION ( 'NONE',  ( 4.275831445896958607E-31, 1.000000000000000000, 1.224646799147353207E-16 ) ) ;
#180 = DIRECTION ( 'NONE',  ( 3.491481338843133355E-15, -1.226656096638776648E-16, 1.000000000000000000 ) ) ;
#181 = CARTESIAN_POINT ( 'NONE',  ( 0.0000000000000000000, 0.0000000000000000000, 0.0000000000000000000 ) ) ;
#182 = CARTESIAN_POINT ( 'NONE',  ( -2.055766497884375859E-30, 4.562602451484485018E-32, -5.887949263866130078E-16 ) ) ;
#183 = APPROVAL_DATE_TIME ( #108, #127 ) ;
#184 = DIRECTION ( 'NONE',  ( -4.282846870592449122E-31, -1.000000000000000000, -1.226656096638776401E-16 ) ) ;
#185 = ADVANCED_FACE ( 'NONE', ( #198, #106 ), #91, .T. ) ;
#186 = SECURITY_CLASSIFICATION_LEVEL ( 'unclassified' ) ;
#187 = DATE_TIME_ROLE ( 'classification_date' ) ;
#188 = UNCERTAINTY_MEASURE_WITH_UNIT (LENGTH_MEASURE( 1.000000000000000082E-05 ), #42, 'distance_accuracy_value', 'NONE');
#189 = CIRCLE ( 'NONE', #83, 4.000000000000000888 ) ;
#190 = ORIENTED_EDGE ( 'NONE', *, *, #33, .F. ) ;
#191 = COORDINATED_UNIVERSAL_TIME_OFFSET ( 1, 0, .AHEAD. ) ;
#192 = ORIENTED_EDGE ( 'NONE', *, *, #112, .T. ) ;
#193 = PERSON_AND_ORGANIZATION_ROLE ( 'design_owner' ) ;
#194 = FACE_OUTER_BOUND ( 'NONE', #30, .T. ) ;
#195 = APPROVAL_PERSON_ORGANIZATION ( #19, #80, #1 ) ;
#196 = DIRECTION ( 'NONE',  ( -4.275831445896958607E-31, -1.000000000000000000, -1.224646799147353207E-16 ) ) ;
#197 = CC_DESIGN_PERSON_AND_ORGANIZATION_ASSIGNMENT ( #149, #221, ( #71 ) ) ;
#198 = FACE_OUTER_BOUND ( 'NONE', #172, .T. ) ;
#199 = DIRECTION ( 'NONE',  ( 0.0000000000000000000, 1.000000000000000000, 0.0000000000000000000 ) ) ;
#200 = CONICAL_SURFACE ( 'NONE', #81, 5.000000000000000000, 0.7853981633974430610 ) ;
#201 = CIRCLE ( 'NONE', #146, 4.999999999999994671 ) ;
#202 = EDGE_LOOP ( 'NONE', ( #223 ) ) ;
#203 = PRODUCT ( '57198', '57198', '', ( #34 ) ) ;
#204 = DIRECTION ( 'NONE',  ( 0.0000000000000000000, 1.000000000000000000, 0.0000000000000000000 ) ) ;
#205 = PERSON_AND_ORGANIZATION ( #210, #60 ) ;
#206 = CARTESIAN_POINT ( 'NONE',  ( 2.513866563967056016E-13, 3.999999999999992450, 72.00000000000000000 ) ) ;
#207 = ORIENTED_EDGE ( 'NONE', *, *, #168, .T. ) ;
#208 = CARTESIAN_POINT ( 'NONE',  ( 6.633814543801952113E-14, 3.749399456654636904E-32, 19.00000000000000000 ) ) ;
#209 = AXIS2_PLACEMENT_3D ( 'NONE', #157, #40, #214 ) ;
#210 = PERSON ( 'UNSPECIFIED', 'UNSPECIFIED', 'UNSPECIFIED', ('UNSPECIFIED'), ('UNSPECIFIED'), ('UNSPECIFIED') ) ;
#211 = DIRECTION ( 'NONE',  ( 3.491481338843133355E-15, -1.224646799147353207E-16, 1.000000000000000000 ) ) ;
#212 = PRODUCT_DEFINITION_SHAPE ( 'NONE', 'NONE',  #51 ) ;
#213 = PERSON_AND_ORGANIZATION ( #210, #60 ) ;
#214 = DIRECTION ( 'NONE',  ( -4.275831445896958607E-31, -1.000000000000000000, -1.224646799147353207E-16 ) ) ;
#215 = CLOSED_SHELL ( 'NONE', ( #99, #117, #68, #93 ) ) ;
#216 = LOCAL_TIME ( 10, 45, 54.00000000000000000, #12 ) ;
#217 = EDGE_CURVE ( 'NONE', #110, #110, #131, .T. ) ;
#218 = APPROVAL_STATUS ( 'not_yet_approved' ) ;
#219 = APPROVAL_DATE_TIME ( #96, #29 ) ;
#220 = PRODUCT_RELATED_PRODUCT_CATEGORY ( 'detail', '', ( #203 ) ) ;
#221 = PERSON_AND_ORGANIZATION_ROLE ( 'classification_officer' ) ;
#222 = LOCAL_TIME ( 10, 45, 54.00000000000000000, #56 ) ;
#223 = ORIENTED_EDGE ( 'NONE', *, *, #168, .F. ) ;
ENDSEC;
END-ISO-10303-21;
