ISO-10303-21;
HEADER;
FILE_DESCRIPTION (( 'STEP AP203' ),
    '1' );
FILE_NAME ('57196.step',
    '2021-11-01T09:45:53',
    ( '' ),
    ( '' ),
    'SwSTEP 2.0',
    'SolidWorks 2019',
    '' );
FILE_SCHEMA (( 'CONFIG_CONTROL_DESIGN' ));
ENDSEC;

DATA;
#1 = VERTEX_POINT ( 'NONE', #226 ) ;
#2 = PERSON_AND_ORGANIZATION_ROLE ( 'design_supplier' ) ;
#3 = AXIS2_PLACEMENT_3D ( 'NONE', #199, #34, #177 ) ;
#4 = APPROVAL_ROLE ( '' ) ;
#5 = APPROVAL ( #152, 'UNSPECIFIED' ) ;
#6 = DIRECTION ( 'NONE',  ( 0.0000000000000000000, 1.000000000000000000, 0.0000000000000000000 ) ) ;
#7 = CC_DESIGN_APPROVAL ( #5, ( #123 ) ) ;
#8 = LOCAL_TIME ( 10, 45, 53.00000000000000000, #79 ) ;
#9 = DIRECTION ( 'NONE',  ( -3.491481338843133355E-15, 1.224646799147353207E-16, -1.000000000000000000 ) ) ;
#10 = ORIENTED_EDGE ( 'NONE', *, *, #169, .F. ) ;
#11 = DIRECTION ( 'NONE',  ( 3.491481338843133355E-15, -1.224646799147353207E-16, 1.000000000000000000 ) ) ;
#12 = AXIS2_PLACEMENT_3D ( 'NONE', #217, #155, #121 ) ;
#13 = ORIENTED_EDGE ( 'NONE', *, *, #71, .F. ) ;
#14 = VERTEX_POINT ( 'NONE', #75 ) ;
#15 = DIRECTION ( 'NONE',  ( 0.0000000000000000000, 1.000000000000000000, 0.0000000000000000000 ) ) ;
#16 = AXIS2_PLACEMENT_3D ( 'NONE', #73, #222, #141 ) ;
#17 = UNCERTAINTY_MEASURE_WITH_UNIT (LENGTH_MEASURE( 1.000000000000000082E-05 ), #74, 'distance_accuracy_value', 'NONE');
#18 = FACE_OUTER_BOUND ( 'NONE', #28, .T. ) ;
#19 = ADVANCED_FACE ( 'NONE', ( #238 ), #83, .F. ) ;
#20 = DIRECTION ( 'NONE',  ( 4.275831445896958607E-31, 1.000000000000000000, 1.224646799147353207E-16 ) ) ;
#21 = DATE_AND_TIME ( #166, #111 ) ;
#22 = PERSON_AND_ORGANIZATION ( #236, #218 ) ;
#23 = CIRCLE ( 'NONE', #51, 4.499999999999997335 ) ;
#24 = DATE_AND_TIME ( #29, #8 ) ;
#25 = ORIENTED_EDGE ( 'NONE', *, *, #169, .T. ) ;
#26 = EDGE_LOOP ( 'NONE', ( #44 ) ) ;
#27 = APPROVAL_DATE_TIME ( #193, #167 ) ;
#28 = EDGE_LOOP ( 'NONE', ( #52 ) ) ;
#29 = CALENDAR_DATE ( 2021, 1, 11 ) ;
#30 = DIRECTION ( 'NONE',  ( -4.389485975339105858E-31, -1.000000000000000000, -1.227517819005651059E-16 ) ) ;
#31 = AXIS2_PLACEMENT_3D ( 'NONE', #106, #86, #15 ) ;
#32 = ORIENTED_EDGE ( 'NONE', *, *, #243, .T. ) ;
#33 = DIRECTION ( 'NONE',  ( 3.491481338843133355E-15, -1.226656096638776648E-16, 1.000000000000000000 ) ) ;
#34 = DIRECTION ( 'NONE',  ( 3.491481338843133355E-15, -1.226656096638776648E-16, 1.000000000000000000 ) ) ;
#35 = CC_DESIGN_DATE_AND_TIME_ASSIGNMENT ( #147, #91, ( #115 ) ) ;
#36 = FACE_BOUND ( 'NONE', #70, .T. ) ;
#37 = CARTESIAN_POINT ( 'NONE',  ( 2.478951750578623799E-13, 4.999999999999992006, 70.99999999999998579 ) ) ;
#38 = CARTESIAN_POINT ( 'NONE',  ( 0.0000000000000000000, 0.0000000000000000000, 0.0000000000000000000 ) ) ;
#39 = PERSON_AND_ORGANIZATION_ROLE ( 'creator' ) ;
#40 = CIRCLE ( 'NONE', #118, 5.000000000000000888 ) ;
#41 = SHAPE_DEFINITION_REPRESENTATION ( #144, #228 ) ;
#42 = EDGE_CURVE ( 'NONE', #14, #14, #184, .T. ) ;
#43 = ORIENTED_EDGE ( 'NONE', *, *, #243, .F. ) ;
#44 = ORIENTED_EDGE ( 'NONE', *, *, #42, .T. ) ;
#45 = CALENDAR_DATE ( 2021, 1, 11 ) ;
#46 = CARTESIAN_POINT ( 'NONE',  ( 5.586370142149013368E-14, 3.749399456654637451E-32, 16.00000000000000000 ) ) ;
#47 = EDGE_LOOP ( 'NONE', ( #10 ) ) ;
#48 = COORDINATED_UNIVERSAL_TIME_OFFSET ( 1, 0, .AHEAD. ) ;
#49 = APPLICATION_CONTEXT ( 'configuration controlled 3d designs of mechanical parts and assemblies' ) ;
#50 = DIRECTION ( 'NONE',  ( 0.0000000000000000000, 1.000000000000000000, 0.0000000000000000000 ) ) ;
#51 = AXIS2_PLACEMENT_3D ( 'NONE', #60, #89, #225 ) ;
#52 = ORIENTED_EDGE ( 'NONE', *, *, #133, .F. ) ;
#53 = ADVANCED_FACE ( 'NONE', ( #69 ), #104, .T. ) ;
#54 = ORIENTED_EDGE ( 'NONE', *, *, #108, .F. ) ;
#55 = CARTESIAN_POINT ( 'NONE',  ( -1.841624154354753184E-30, 3.810259861773944146E-32, -5.274621215546741631E-16 ) ) ;
#56 = AXIS2_PLACEMENT_3D ( 'NONE', #137, #81, #99 ) ;
#57 = APPROVAL_PERSON_ORGANIZATION ( #209, #167, #171 ) ;
#58 = DIRECTION ( 'NONE',  ( -4.282846870592447371E-31, -1.000000000000000000, -1.226656096638776648E-16 ) ) ;
#59 =( NAMED_UNIT ( * ) PLANE_ANGLE_UNIT ( ) SI_UNIT ( $, .RADIAN. ) );
#60 = CARTESIAN_POINT ( 'NONE',  ( 5.586370142149013368E-14, -1.964028510409041694E-15, 16.00000000000000000 ) ) ;
#61 = APPLICATION_PROTOCOL_DEFINITION ( 'international standard', 'config_control_design', 1994, #191 ) ;
#62 = COORDINATED_UNIVERSAL_TIME_OFFSET ( 1, 0, .AHEAD. ) ;
#63 = PERSON_AND_ORGANIZATION_ROLE ( 'creator' ) ;
#64 = CIRCLE ( 'NONE', #12, 4.499999999999997335 ) ;
#65 = APPLICATION_PROTOCOL_DEFINITION ( 'international standard', 'config_control_design', 1994, #49 ) ;
#66 = CC_DESIGN_APPROVAL ( #100, ( #115 ) ) ;
#67 = EDGE_LOOP ( 'NONE', ( #215 ) ) ;
#68 = PLANE ( 'NONE',  #98 ) ;
#69 = FACE_OUTER_BOUND ( 'NONE', #220, .T. ) ;
#70 = EDGE_LOOP ( 'NONE', ( #134 ) ) ;
#71 = EDGE_CURVE ( 'NONE', #127, #127, #64, .T. ) ;
#72 = EDGE_LOOP ( 'NONE', ( #13 ) ) ;
#73 = CARTESIAN_POINT ( 'NONE',  ( 0.0000000000000000000, 0.0000000000000000000, 0.0000000000000000000 ) ) ;
#74 =( LENGTH_UNIT ( ) NAMED_UNIT ( * ) SI_UNIT ( .MILLI., .METRE. ) );
#75 = CARTESIAN_POINT ( 'NONE',  ( 6.558357410743854824E-14, 4.999999999999995559, 18.78388218141500943 ) ) ;
#76 = AXIS2_PLACEMENT_3D ( 'NONE', #140, #33, #85 ) ;
#77 = ADVANCED_FACE ( 'NONE', ( #154 ), #68, .F. ) ;
#78 = PERSON_AND_ORGANIZATION ( #236, #218 ) ;
#79 = COORDINATED_UNIVERSAL_TIME_OFFSET ( 1, 0, .AHEAD. ) ;
#80 = LOCAL_TIME ( 10, 45, 53.00000000000000000, #135 ) ;
#81 = DIRECTION ( 'NONE',  ( 3.491481338843133355E-15, -1.224646799147353207E-16, 1.000000000000000000 ) ) ;
#82 = PERSON_AND_ORGANIZATION ( #236, #218 ) ;
#83 = PLANE ( 'NONE',  #56 ) ;
#84 = CC_DESIGN_PERSON_AND_ORGANIZATION_ASSIGNMENT ( #78, #63, ( #115 ) ) ;
#85 = DIRECTION ( 'NONE',  ( -4.279844320860524021E-31, -1.000000000000000000, -1.204669080539449344E-16 ) ) ;
#86 = DIRECTION ( 'NONE',  ( -3.491481338843133355E-15, 1.224646799147353207E-16, -1.000000000000000000 ) ) ;
#87 = DIRECTION ( 'NONE',  ( -3.491481338843133355E-15, 1.224646799147353207E-16, -1.000000000000000000 ) ) ;
#88 = FACE_OUTER_BOUND ( 'NONE', #233, .T. ) ;
#89 = DIRECTION ( 'NONE',  ( 3.491481338843133355E-15, -1.227517819005651059E-16, 1.000000000000000000 ) ) ;
#90 = ADVANCED_FACE ( 'NONE', ( #192, #96 ), #156, .F. ) ;
#91 = DATE_TIME_ROLE ( 'creation_date' ) ;
#92 = AXIS2_PLACEMENT_3D ( 'NONE', #160, #87, #20 ) ;
#93 = SECURITY_CLASSIFICATION_LEVEL ( 'unclassified' ) ;
#94 = EDGE_LOOP ( 'NONE', ( #189 ) ) ;
#95 = LOCAL_TIME ( 10, 45, 53.00000000000000000, #148 ) ;
#96 = FACE_OUTER_BOUND ( 'NONE', #26, .T. ) ;
#97 = PERSON_AND_ORGANIZATION ( #236, #218 ) ;
#98 = AXIS2_PLACEMENT_3D ( 'NONE', #139, #198, #116 ) ;
#99 = DIRECTION ( 'NONE',  ( -4.275831445896958607E-31, -1.000000000000000000, -1.224646799147353207E-16 ) ) ;
#100 = APPROVAL ( #216, 'UNSPECIFIED' ) ;
#101 = CARTESIAN_POINT ( 'NONE',  ( 6.558357410743854824E-14, -2.076449974346732108E-15, 18.78388218141500943 ) ) ;
#102 = PRODUCT ( '57196', '57196', '', ( #235 ) ) ;
#103 = DIRECTION ( 'NONE',  ( -3.491481338843133355E-15, 1.224646799147353207E-16, -1.000000000000000000 ) ) ;
#104 = PLANE ( 'NONE',  #113 ) ;
#105 = CYLINDRICAL_SURFACE ( 'NONE', #16, 4.999999999999997335 ) ;
#106 = CARTESIAN_POINT ( 'NONE',  ( 2.513866563967056016E-13, -8.817456953860941711E-15, 72.00000000000000000 ) ) ;
#107 = CONICAL_SURFACE ( 'NONE', #31, 4.000000000000000888, 0.7853981633974410625 ) ;
#108 = EDGE_CURVE ( 'NONE', #122, #122, #40, .T. ) ;
#109 = CARTESIAN_POINT ( 'NONE',  ( -6.413731847436034514E-31, 0.0000000000000000000, -1.836965810494968570E-16 ) ) ;
#110 = PERSON_AND_ORGANIZATION ( #236, #218 ) ;
#111 = LOCAL_TIME ( 10, 45, 53.00000000000000000, #48 ) ;
#112 = PERSON_AND_ORGANIZATION ( #236, #218 ) ;
#113 = AXIS2_PLACEMENT_3D ( 'NONE', #46, #11, #120 ) ;
#114 = EDGE_LOOP ( 'NONE', ( #54 ) ) ;
#115 = PRODUCT_DEFINITION ( 'UNKNOWN', '', #123, #145 ) ;
#116 = DIRECTION ( 'NONE',  ( -4.275831445896958607E-31, -1.000000000000000000, -1.224646799147353207E-16 ) ) ;
#117 = CARTESIAN_POINT ( 'NONE',  ( 2.478951750578623799E-13, -8.694992273946204985E-15, 70.99999999999998579 ) ) ;
#118 = AXIS2_PLACEMENT_3D ( 'NONE', #117, #9, #50 ) ;
#119 = CARTESIAN_POINT ( 'NONE',  ( 2.513866563967056016E-13, -8.817456953860941711E-15, 72.00000000000000000 ) ) ;
#120 = DIRECTION ( 'NONE',  ( -4.275831445896958607E-31, -1.000000000000000000, -1.224646799147353207E-16 ) ) ;
#121 = DIRECTION ( 'NONE',  ( 0.0000000000000000000, -1.000000000000000000, 0.0000000000000000000 ) ) ;
#122 = VERTEX_POINT ( 'NONE', #37 ) ;
#123 = PRODUCT_DEFINITION_FORMATION_WITH_SPECIFIED_SOURCE ( 'ANY', '', #102, .NOT_KNOWN. ) ;
#124 = FACE_OUTER_BOUND ( 'NONE', #234, .T. ) ;
#125 = VERTEX_POINT ( 'NONE', #203 ) ;
#126 = EDGE_CURVE ( 'NONE', #1, #1, #240, .T. ) ;
#127 = VERTEX_POINT ( 'NONE', #204 ) ;
#128 = CIRCLE ( 'NONE', #136, 4.300000000000001599 ) ;
#129 = CC_DESIGN_SECURITY_CLASSIFICATION ( #143, ( #123 ) ) ;
#130 = DIRECTION ( 'NONE',  ( 0.0000000000000000000, 0.0000000000000000000, 1.000000000000000000 ) ) ;
#131 = DATE_TIME_ROLE ( 'classification_date' ) ;
#132 = AXIS2_PLACEMENT_3D ( 'NONE', #119, #103, #175 ) ;
#133 = EDGE_CURVE ( 'NONE', #201, #201, #200, .T. ) ;
#134 = ORIENTED_EDGE ( 'NONE', *, *, #133, .T. ) ;
#135 = COORDINATED_UNIVERSAL_TIME_OFFSET ( 1, 0, .AHEAD. ) ;
#136 = AXIS2_PLACEMENT_3D ( 'NONE', #55, #224, #58 ) ;
#137 = CARTESIAN_POINT ( 'NONE',  ( 5.586370142149013368E-14, 3.749399456654637451E-32, 16.00000000000000000 ) ) ;
#138 = APPROVAL_PERSON_ORGANIZATION ( #82, #100, #151 ) ;
#139 = CARTESIAN_POINT ( 'NONE',  ( -8.551702076470480934E-31, 2.999533309458101739E-32, -2.449304821232125005E-16 ) ) ;
#140 = CARTESIAN_POINT ( 'NONE',  ( 6.982962677686248961E-16, -2.453312193277549783E-17, 0.1999999999999994837 ) ) ;
#141 = DIRECTION ( 'NONE',  ( 4.275831445896959482E-31, 1.000000000000000000, 1.224646799147353207E-16 ) ) ;
#142 = DIRECTION ( 'NONE',  ( -4.285855558155653280E-31, -1.000000000000000000, -1.227517819005651059E-16 ) ) ;
#143 = SECURITY_CLASSIFICATION ( '', '', #93 ) ;
#144 = PRODUCT_DEFINITION_SHAPE ( 'NONE', 'NONE',  #115 ) ;
#145 = DESIGN_CONTEXT ( 'detailed design', #49, 'design' ) ;
#146 = ADVANCED_FACE ( 'NONE', ( #157, #221 ), #170, .T. ) ;
#147 = DATE_AND_TIME ( #185, #95 ) ;
#148 = COORDINATED_UNIVERSAL_TIME_OFFSET ( 1, 0, .AHEAD. ) ;
#149 = CLOSED_SHELL ( 'NONE', ( #227, #197, #176, #90, #19 ) ) ;
#150 = ADVANCED_FACE ( 'NONE', ( #124, #159 ), #202, .T. ) ;
#151 = APPROVAL_ROLE ( '' ) ;
#152 = APPROVAL_STATUS ( 'not_yet_approved' ) ;
#153 = APPROVAL_PERSON_ORGANIZATION ( #110, #5, #4 ) ;
#154 = FACE_OUTER_BOUND ( 'NONE', #47, .T. ) ;
#155 = DIRECTION ( 'NONE',  ( 3.491481338843133355E-15, -1.227517819005651059E-16, 1.000000000000000000 ) ) ;
#156 = TOROIDAL_SURFACE ( 'NONE', #195, 12.49999999999999645, 8.000000000000000000 ) ;
#157 = FACE_BOUND ( 'NONE', #174, .T. ) ;
#158 = CC_DESIGN_PERSON_AND_ORGANIZATION_ASSIGNMENT ( #97, #165, ( #143 ) ) ;
#159 = FACE_OUTER_BOUND ( 'NONE', #211, .T. ) ;
#160 = CARTESIAN_POINT ( 'NONE',  ( 2.513866563967056016E-13, 2.999519565323702626E-32, 72.00000000000000000 ) ) ;
#161 = CARTESIAN_POINT ( 'NONE',  ( 2.513866563967056016E-13, 3.999999999999992450, 72.00000000000000000 ) ) ;
#162 = PLANE ( 'NONE',  #92 ) ;
#163 = APPROVAL_DATE_TIME ( #21, #100 ) ;
#164 = LOCAL_TIME ( 10, 45, 53.00000000000000000, #62 ) ;
#165 = PERSON_AND_ORGANIZATION_ROLE ( 'classification_officer' ) ;
#166 = CALENDAR_DATE ( 2021, 1, 11 ) ;
#167 = APPROVAL ( #172, 'UNSPECIFIED' ) ;
#168 = EDGE_LOOP ( 'NONE', ( #187 ) ) ;
#169 = EDGE_CURVE ( 'NONE', #125, #125, #128, .T. ) ;
#170 = CONICAL_SURFACE ( 'NONE', #3, 4.500000000000000000, 0.7853981633974430610 ) ;
#171 = APPROVAL_ROLE ( '' ) ;
#172 = APPROVAL_STATUS ( 'not_yet_approved' ) ;
#173 = ORIENTED_EDGE ( 'NONE', *, *, #108, .T. ) ;
#174 = EDGE_LOOP ( 'NONE', ( #25 ) ) ;
#175 = DIRECTION ( 'NONE',  ( 0.0000000000000000000, 1.000000000000000000, 0.0000000000000000000 ) ) ;
#176 = ADVANCED_FACE ( 'NONE', ( #18 ), #162, .F. ) ;
#177 = DIRECTION ( 'NONE',  ( -4.279844320860524021E-31, -1.000000000000000000, -1.204669080539449344E-16 ) ) ;
#178 = VERTEX_POINT ( 'NONE', #241 ) ;
#179 = FACE_OUTER_BOUND ( 'NONE', #114, .T. ) ;
#180 = AXIS2_PLACEMENT_3D ( 'NONE', #38, #130, #230 ) ;
#181 = DIRECTION ( 'NONE',  ( 3.491481338843133355E-15, -1.227517819005651059E-16, 1.000000000000000000 ) ) ;
#182 = CC_DESIGN_PERSON_AND_ORGANIZATION_ASSIGNMENT ( #183, #213, ( #102 ) ) ;
#183 = PERSON_AND_ORGANIZATION ( #236, #218 ) ;
#184 = CIRCLE ( 'NONE', #231, 4.999999999999997335 ) ;
#185 = CALENDAR_DATE ( 2021, 1, 11 ) ;
#186 = PRODUCT_RELATED_PRODUCT_CATEGORY ( 'detail', '', ( #102 ) ) ;
#187 = ORIENTED_EDGE ( 'NONE', *, *, #71, .T. ) ;
#188 = CC_DESIGN_APPROVAL ( #167, ( #143 ) ) ;
#189 = ORIENTED_EDGE ( 'NONE', *, *, #126, .F. ) ;
#190 = APPROVAL_DATE_TIME ( #229, #5 ) ;
#191 = APPLICATION_CONTEXT ( 'configuration controlled 3d designs of mechanical parts and assemblies' ) ;
#192 = FACE_OUTER_BOUND ( 'NONE', #168, .T. ) ;
#193 = DATE_AND_TIME ( #45, #164 ) ;
#194 = CARTESIAN_POINT ( 'NONE',  ( 5.586370142149013368E-14, -1.734723475976807094E-15, 16.00000000000000000 ) ) ;
#195 = AXIS2_PLACEMENT_3D ( 'NONE', #194, #237, #30 ) ;
#196 = ORIENTED_EDGE ( 'NONE', *, *, #126, .T. ) ;
#197 = ADVANCED_FACE ( 'NONE', ( #179, #36 ), #107, .T. ) ;
#198 = DIRECTION ( 'NONE',  ( 3.491481338843133355E-15, -1.224646799147353207E-16, 1.000000000000000000 ) ) ;
#199 = CARTESIAN_POINT ( 'NONE',  ( 6.982962677686248961E-16, -2.453312193277549783E-17, 0.1999999999999994837 ) ) ;
#200 = CIRCLE ( 'NONE', #132, 4.000000000000000888 ) ;
#201 = VERTEX_POINT ( 'NONE', #161 ) ;
#202 = CYLINDRICAL_SURFACE ( 'NONE', #223, 4.499999999999997335 ) ;
#203 = CARTESIAN_POINT ( 'NONE',  ( -3.683248308709506368E-30, -4.300000000000001599, -1.054924243109348326E-15 ) ) ;
#204 = CARTESIAN_POINT ( 'NONE',  ( 5.586370142149013368E-14, -4.499999999999999112, 16.00000000000000000 ) ) ;
#205 =( GEOMETRIC_REPRESENTATION_CONTEXT ( 3 ) GLOBAL_UNCERTAINTY_ASSIGNED_CONTEXT ( ( #17 ) ) GLOBAL_UNIT_ASSIGNED_CONTEXT ( ( #74, #59, #242 ) ) REPRESENTATION_CONTEXT ( 'NONE', 'WORKASPACE' ) );
#206 = MANIFOLD_SOLID_BREP ( 'Corps-Déplacer/Copier1[2]', #212 ) ;
#207 = CC_DESIGN_PERSON_AND_ORGANIZATION_ASSIGNMENT ( #112, #39, ( #123 ) ) ;
#208 = CALENDAR_DATE ( 2021, 1, 11 ) ;
#209 = PERSON_AND_ORGANIZATION ( #236, #218 ) ;
#210 = MANIFOLD_SOLID_BREP ( 'Corps-Déplacer/Copier1[1]', #149 ) ;
#211 = EDGE_LOOP ( 'NONE', ( #196 ) ) ;
#212 = CLOSED_SHELL ( 'NONE', ( #150, #53, #146, #77 ) ) ;
#213 = PERSON_AND_ORGANIZATION_ROLE ( 'design_owner' ) ;
#214 = DIRECTION ( 'NONE',  ( -3.491481338843133355E-15, 1.227517819005651059E-16, -1.000000000000000000 ) ) ;
#215 = ORIENTED_EDGE ( 'NONE', *, *, #42, .F. ) ;
#216 = APPROVAL_STATUS ( 'not_yet_approved' ) ;
#217 = CARTESIAN_POINT ( 'NONE',  ( 5.586370142149013368E-14, -1.964028510409041694E-15, 16.00000000000000000 ) ) ;
#218 = ORGANIZATION ( 'UNSPECIFIED', 'UNSPECIFIED', '' ) ;
#219 = CC_DESIGN_PERSON_AND_ORGANIZATION_ASSIGNMENT ( #22, #2, ( #123 ) ) ;
#220 = EDGE_LOOP ( 'NONE', ( #32 ) ) ;
#221 = FACE_OUTER_BOUND ( 'NONE', #94, .T. ) ;
#222 = DIRECTION ( 'NONE',  ( -3.491481338843133355E-15, 1.224646799147353207E-16, -1.000000000000000000 ) ) ;
#223 = AXIS2_PLACEMENT_3D ( 'NONE', #109, #181, #142 ) ;
#224 = DIRECTION ( 'NONE',  ( 3.491481338843133355E-15, -1.226656096638776648E-16, 1.000000000000000000 ) ) ;
#225 = DIRECTION ( 'NONE',  ( 0.0000000000000000000, -1.000000000000000000, 0.0000000000000000000 ) ) ;
#226 = CARTESIAN_POINT ( 'NONE',  ( 6.982962677686230226E-16, -4.500000000000000000, 0.1999999999999989564 ) ) ;
#227 = ADVANCED_FACE ( 'NONE', ( #88, #239 ), #105, .T. ) ;
#228 = ADVANCED_BREP_SHAPE_REPRESENTATION ( '57196', ( #210, #206, #180 ), #205 ) ;
#229 = DATE_AND_TIME ( #208, #80 ) ;
#230 = DIRECTION ( 'NONE',  ( 1.000000000000000000, 0.0000000000000000000, 0.0000000000000000000 ) ) ;
#231 = AXIS2_PLACEMENT_3D ( 'NONE', #101, #214, #6 ) ;
#232 = CC_DESIGN_DATE_AND_TIME_ASSIGNMENT ( #24, #131, ( #143 ) ) ;
#233 = EDGE_LOOP ( 'NONE', ( #173 ) ) ;
#234 = EDGE_LOOP ( 'NONE', ( #43 ) ) ;
#235 = MECHANICAL_CONTEXT ( 'NONE', #191, 'mechanical' ) ;
#236 = PERSON ( 'UNSPECIFIED', 'UNSPECIFIED', 'UNSPECIFIED', ('UNSPECIFIED'), ('UNSPECIFIED'), ('UNSPECIFIED') ) ;
#237 = DIRECTION ( 'NONE',  ( 3.491481338843133355E-15, -1.227517819005651059E-16, 1.000000000000000000 ) ) ;
#238 = FACE_OUTER_BOUND ( 'NONE', #72, .T. ) ;
#239 = FACE_OUTER_BOUND ( 'NONE', #67, .T. ) ;
#240 = CIRCLE ( 'NONE', #76, 4.500000000000000000 ) ;
#241 = CARTESIAN_POINT ( 'NONE',  ( 5.586370142149013368E-14, -4.499999999999999112, 16.00000000000000000 ) ) ;
#242 =( NAMED_UNIT ( * ) SI_UNIT ( $, .STERADIAN. ) SOLID_ANGLE_UNIT ( ) );
#243 = EDGE_CURVE ( 'NONE', #178, #178, #23, .T. ) ;
ENDSEC;
END-ISO-10303-21;
