ISO-10303-21;
HEADER;
FILE_DESCRIPTION (( 'STEP AP203' ),
    '1' );
FILE_NAME ('57195.step',
    '2021-11-01T09:45:52',
    ( '' ),
    ( '' ),
    'SwSTEP 2.0',
    'SolidWorks 2019',
    '' );
FILE_SCHEMA (( 'CONFIG_CONTROL_DESIGN' ));
ENDSEC;

DATA;
#1 = COORDINATED_UNIVERSAL_TIME_OFFSET ( 1, 0, .AHEAD. ) ;
#2 = AXIS2_PLACEMENT_3D ( 'NONE', #205, #87, #107 ) ;
#3 = DATE_TIME_ROLE ( 'creation_date' ) ;
#4 = LOCAL_TIME ( 10, 45, 52.00000000000000000, #80 ) ;
#5 = CC_DESIGN_SECURITY_CLASSIFICATION ( #117, ( #122 ) ) ;
#6 = ORIENTED_EDGE ( 'NONE', *, *, #243, .F. ) ;
#7 = ADVANCED_FACE ( 'NONE', ( #172, #89 ), #200, .T. ) ;
#8 = EDGE_LOOP ( 'NONE', ( #182 ) ) ;
#9 = AXIS2_PLACEMENT_3D ( 'NONE', #135, #14, #67 ) ;
#10 = DIRECTION ( 'NONE',  ( 3.491481338843133355E-15, -1.227517819005651059E-16, 1.000000000000000000 ) ) ;
#11 = CARTESIAN_POINT ( 'NONE',  ( 2.513866563967056016E-13, -8.817456953860941711E-15, 72.00000000000000000 ) ) ;
#12 = FACE_OUTER_BOUND ( 'NONE', #162, .T. ) ;
#13 = DIRECTION ( 'NONE',  ( 3.491481338843133355E-15, -1.224646799147353207E-16, 1.000000000000000000 ) ) ;
#14 = DIRECTION ( 'NONE',  ( 3.491481338843133355E-15, -1.226656096638776648E-16, 1.000000000000000000 ) ) ;
#15 = DIRECTION ( 'NONE',  ( -4.305019875689115797E-31, -1.000000000000000000, -1.211755369248505057E-16 ) ) ;
#16 = CARTESIAN_POINT ( 'NONE',  ( 6.767167244461324493E-14, 4.999999999999995559, 19.38193731461717206 ) ) ;
#17 = APPROVAL_ROLE ( '' ) ;
#18 = CALENDAR_DATE ( 2021, 1, 11 ) ;
#19 = AXIS2_PLACEMENT_3D ( 'NONE', #31, #174, #185 ) ;
#20 = DATE_AND_TIME ( #18, #180 ) ;
#21 = CALENDAR_DATE ( 2021, 1, 11 ) ;
#22 = CLOSED_SHELL ( 'NONE', ( #151, #76, #104, #163 ) ) ;
#23 = EDGE_LOOP ( 'NONE', ( #145 ) ) ;
#24 = EDGE_CURVE ( 'NONE', #91, #91, #134, .T. ) ;
#25 = APPROVAL_ROLE ( '' ) ;
#26 = APPROVAL_STATUS ( 'not_yet_approved' ) ;
#27 = DIRECTION ( 'NONE',  ( 0.0000000000000000000, -1.000000000000000000, 0.0000000000000000000 ) ) ;
#28 = AXIS2_PLACEMENT_3D ( 'NONE', #79, #242, #36 ) ;
#29 = EDGE_CURVE ( 'NONE', #40, #40, #38, .T. ) ;
#30 = FACE_OUTER_BOUND ( 'NONE', #146, .T. ) ;
#31 = CARTESIAN_POINT ( 'NONE',  ( -6.413731847436034514E-31, 0.0000000000000000000, -1.836965810494968570E-16 ) ) ;
#32 = DIRECTION ( 'NONE',  ( -4.275831445896958607E-31, -1.000000000000000000, -1.224646799147353207E-16 ) ) ;
#33 = PRODUCT ( '57195', '57195', '', ( #138 ) ) ;
#34 = AXIS2_PLACEMENT_3D ( 'NONE', #55, #13, #88 ) ;
#35 = DIRECTION ( 'NONE',  ( -4.305019875689115797E-31, -1.000000000000000000, -1.211755369248505057E-16 ) ) ;
#36 = DIRECTION ( 'NONE',  ( 0.0000000000000000000, 1.000000000000000000, 0.0000000000000000000 ) ) ;
#37 = PERSON_AND_ORGANIZATION ( #209, #111 ) ;
#38 = CIRCLE ( 'NONE', #171, 4.249999999999998224 ) ;
#39 = LOCAL_TIME ( 10, 45, 52.00000000000000000, #121 ) ;
#40 = VERTEX_POINT ( 'NONE', #93 ) ;
#41 = DIRECTION ( 'NONE',  ( 0.0000000000000000000, 0.0000000000000000000, 1.000000000000000000 ) ) ;
#42 = PERSON_AND_ORGANIZATION ( #209, #111 ) ;
#43 = PRODUCT_RELATED_PRODUCT_CATEGORY ( 'detail', '', ( #33 ) ) ;
#44 = CALENDAR_DATE ( 2021, 1, 11 ) ;
#45 = ADVANCED_FACE ( 'NONE', ( #72 ), #237, .F. ) ;
#46 = EDGE_LOOP ( 'NONE', ( #128 ) ) ;
#47 = AXIS2_PLACEMENT_3D ( 'NONE', #11, #239, #169 ) ;
#48 = ORIENTED_EDGE ( 'NONE', *, *, #203, .T. ) ;
#49 = FACE_OUTER_BOUND ( 'NONE', #46, .T. ) ;
#50 = PRODUCT_DEFINITION ( 'UNKNOWN', '', #122, #168 ) ;
#51 = PLANE ( 'NONE',  #2 ) ;
#52 =( GEOMETRIC_REPRESENTATION_CONTEXT ( 3 ) GLOBAL_UNCERTAINTY_ASSIGNED_CONTEXT ( ( #126 ) ) GLOBAL_UNIT_ASSIGNED_CONTEXT ( ( #60, #137, #141 ) ) REPRESENTATION_CONTEXT ( 'NONE', 'WORKASPACE' ) );
#53 = APPROVAL_PERSON_ORGANIZATION ( #42, #190, #17 ) ;
#54 = CYLINDRICAL_SURFACE ( 'NONE', #19, 4.249999999999998224 ) ;
#55 = CARTESIAN_POINT ( 'NONE',  ( -8.551702076470480934E-31, 2.999533309458101739E-32, -2.449304821232125005E-16 ) ) ;
#56 = CARTESIAN_POINT ( 'NONE',  ( 6.767167244461324493E-14, -2.149862307622076787E-15, 19.38193731461717206 ) ) ;
#57 = CARTESIAN_POINT ( 'NONE',  ( 5.586370142149013368E-14, -4.250000000000000000, 16.00000000000000000 ) ) ;
#58 = CARTESIAN_POINT ( 'NONE',  ( 6.982962677686232198E-16, -4.250000000000000000, 0.1999999999999990119 ) ) ;
#59 = CC_DESIGN_DATE_AND_TIME_ASSIGNMENT ( #158, #233, ( #117 ) ) ;
#60 =( LENGTH_UNIT ( ) NAMED_UNIT ( * ) SI_UNIT ( .MILLI., .METRE. ) );
#61 = CLOSED_SHELL ( 'NONE', ( #7, #231, #131, #118, #45 ) ) ;
#62 = CARTESIAN_POINT ( 'NONE',  ( 2.513866563967056016E-13, 3.999999999999992450, 72.00000000000000000 ) ) ;
#63 = DIRECTION ( 'NONE',  ( 3.491481338843133355E-15, -1.226656096638776648E-16, 1.000000000000000000 ) ) ;
#64 = PERSON_AND_ORGANIZATION ( #209, #111 ) ;
#65 = ORIENTED_EDGE ( 'NONE', *, *, #24, .T. ) ;
#66 = COORDINATED_UNIVERSAL_TIME_OFFSET ( 1, 0, .AHEAD. ) ;
#67 = DIRECTION ( 'NONE',  ( -4.282846870592448247E-31, -1.000000000000000000, -1.226656096638776401E-16 ) ) ;
#68 = DIRECTION ( 'NONE',  ( 0.0000000000000000000, 1.000000000000000000, 0.0000000000000000000 ) ) ;
#69 = AXIS2_PLACEMENT_3D ( 'NONE', #133, #221, #238 ) ;
#70 = LOCAL_TIME ( 10, 45, 52.00000000000000000, #66 ) ;
#71 = CC_DESIGN_PERSON_AND_ORGANIZATION_ASSIGNMENT ( #195, #164, ( #122 ) ) ;
#72 = FACE_OUTER_BOUND ( 'NONE', #214, .T. ) ;
#73 = FACE_OUTER_BOUND ( 'NONE', #144, .T. ) ;
#74 = VERTEX_POINT ( 'NONE', #58 ) ;
#75 = VERTEX_POINT ( 'NONE', #57 ) ;
#76 = ADVANCED_FACE ( 'NONE', ( #73 ), #173, .T. ) ;
#77 = CARTESIAN_POINT ( 'NONE',  ( 0.0000000000000000000, 0.0000000000000000000, 0.0000000000000000000 ) ) ;
#78 = CIRCLE ( 'NONE', #116, 5.000000000000000888 ) ;
#79 = CARTESIAN_POINT ( 'NONE',  ( 2.513866563967056016E-13, -8.817456953860941711E-15, 72.00000000000000000 ) ) ;
#80 = COORDINATED_UNIVERSAL_TIME_OFFSET ( 1, 0, .AHEAD. ) ;
#81 = ORIENTED_EDGE ( 'NONE', *, *, #29, .T. ) ;
#82 = ORIENTED_EDGE ( 'NONE', *, *, #243, .T. ) ;
#83 = ORIENTED_EDGE ( 'NONE', *, *, #29, .F. ) ;
#84 = PLANE ( 'NONE',  #34 ) ;
#85 = FACE_BOUND ( 'NONE', #215, .T. ) ;
#86 = APPROVAL ( #26, 'UNSPECIFIED' ) ;
#87 = DIRECTION ( 'NONE',  ( -3.491481338843133355E-15, 1.224646799147353207E-16, -1.000000000000000000 ) ) ;
#88 = DIRECTION ( 'NONE',  ( -4.275831445896958607E-31, -1.000000000000000000, -1.224646799147353207E-16 ) ) ;
#89 = FACE_OUTER_BOUND ( 'NONE', #218, .T. ) ;
#90 = EDGE_CURVE ( 'NONE', #210, #210, #78, .T. ) ;
#91 = VERTEX_POINT ( 'NONE', #62 ) ;
#92 = AXIS2_PLACEMENT_3D ( 'NONE', #157, #63, #15 ) ;
#93 = CARTESIAN_POINT ( 'NONE',  ( 5.586370142149013368E-14, -4.250000000000000000, 16.00000000000000000 ) ) ;
#94 = DATE_AND_TIME ( #115, #207 ) ;
#95 = CC_DESIGN_PERSON_AND_ORGANIZATION_ASSIGNMENT ( #64, #234, ( #117 ) ) ;
#96 = APPLICATION_PROTOCOL_DEFINITION ( 'international standard', 'config_control_design', 1994, #225 ) ;
#97 = AXIS2_PLACEMENT_3D ( 'NONE', #56, #154, #112 ) ;
#98 = CIRCLE ( 'NONE', #97, 4.999999999999997335 ) ;
#99 = APPROVAL_PERSON_ORGANIZATION ( #100, #228, #25 ) ;
#100 = PERSON_AND_ORGANIZATION ( #209, #111 ) ;
#101 = SHAPE_DEFINITION_REPRESENTATION ( #113, #167 ) ;
#102 = EDGE_LOOP ( 'NONE', ( #83 ) ) ;
#103 = ORIENTED_EDGE ( 'NONE', *, *, #159, .F. ) ;
#104 = ADVANCED_FACE ( 'NONE', ( #85, #12 ), #206, .T. ) ;
#105 = CIRCLE ( 'NONE', #92, 4.250000000000000000 ) ;
#106 = CC_DESIGN_APPROVAL ( #190, ( #50 ) ) ;
#107 = DIRECTION ( 'NONE',  ( 4.275831445896958607E-31, 1.000000000000000000, 1.224646799147353207E-16 ) ) ;
#108 = CARTESIAN_POINT ( 'NONE',  ( 5.586370142149013368E-14, 3.749399456654637451E-32, 16.00000000000000000 ) ) ;
#109 = DIRECTION ( 'NONE',  ( 3.491481338843133355E-15, -1.227517819005651059E-16, 1.000000000000000000 ) ) ;
#110 = TOROIDAL_SURFACE ( 'NONE', #69, 12.24999999999999467, 7.999999999999998224 ) ;
#111 = ORGANIZATION ( 'UNSPECIFIED', 'UNSPECIFIED', '' ) ;
#112 = DIRECTION ( 'NONE',  ( 0.0000000000000000000, 1.000000000000000000, 0.0000000000000000000 ) ) ;
#113 = PRODUCT_DEFINITION_SHAPE ( 'NONE', 'NONE',  #50 ) ;
#114 = APPLICATION_CONTEXT ( 'configuration controlled 3d designs of mechanical parts and assemblies' ) ;
#115 = CALENDAR_DATE ( 2021, 1, 11 ) ;
#116 = AXIS2_PLACEMENT_3D ( 'NONE', #152, #188, #68 ) ;
#117 = SECURITY_CLASSIFICATION ( '', '', #181 ) ;
#118 = ADVANCED_FACE ( 'NONE', ( #150, #49 ), #110, .F. ) ;
#119 = COORDINATED_UNIVERSAL_TIME_OFFSET ( 1, 0, .AHEAD. ) ;
#120 = VERTEX_POINT ( 'NONE', #155 ) ;
#121 = COORDINATED_UNIVERSAL_TIME_OFFSET ( 1, 0, .AHEAD. ) ;
#122 = PRODUCT_DEFINITION_FORMATION_WITH_SPECIFIED_SOURCE ( 'ANY', '', #33, .NOT_KNOWN. ) ;
#123 = APPROVAL_DATE_TIME ( #147, #86 ) ;
#124 = EDGE_LOOP ( 'NONE', ( #165 ) ) ;
#125 = CC_DESIGN_PERSON_AND_ORGANIZATION_ASSIGNMENT ( #232, #196, ( #122 ) ) ;
#126 = UNCERTAINTY_MEASURE_WITH_UNIT (LENGTH_MEASURE( 1.000000000000000082E-05 ), #60, 'distance_accuracy_value', 'NONE');
#127 = DATE_AND_TIME ( #44, #39 ) ;
#128 = ORIENTED_EDGE ( 'NONE', *, *, #199, .T. ) ;
#129 = FACE_OUTER_BOUND ( 'NONE', #8, .T. ) ;
#130 = CARTESIAN_POINT ( 'NONE',  ( 5.586370142149013368E-14, 3.749399456654637451E-32, 16.00000000000000000 ) ) ;
#131 = ADVANCED_FACE ( 'NONE', ( #30 ), #51, .F. ) ;
#132 = DIRECTION ( 'NONE',  ( -4.275831445896958607E-31, -1.000000000000000000, -1.224646799147353207E-16 ) ) ;
#133 = CARTESIAN_POINT ( 'NONE',  ( 5.586370142149013368E-14, -1.734723475976807094E-15, 16.00000000000000000 ) ) ;
#134 = CIRCLE ( 'NONE', #47, 4.000000000000000888 ) ;
#135 = CARTESIAN_POINT ( 'NONE',  ( -1.734552982589942547E-30, 3.434088566918675625E-32, -4.967957191387047901E-16 ) ) ;
#136 = CC_DESIGN_APPROVAL ( #86, ( #117 ) ) ;
#137 =( NAMED_UNIT ( * ) PLANE_ANGLE_UNIT ( ) SI_UNIT ( $, .RADIAN. ) );
#138 = MECHANICAL_CONTEXT ( 'NONE', #225, 'mechanical' ) ;
#139 = CC_DESIGN_PERSON_AND_ORGANIZATION_ASSIGNMENT ( #191, #193, ( #50 ) ) ;
#140 = CARTESIAN_POINT ( 'NONE',  ( 2.478951750578623799E-13, 4.999999999999992006, 70.99999999999998579 ) ) ;
#141 =( NAMED_UNIT ( * ) SI_UNIT ( $, .STERADIAN. ) SOLID_ANGLE_UNIT ( ) );
#142 = MANIFOLD_SOLID_BREP ( 'Corps-Déplacer/Copier1[1]', #61 ) ;
#143 = CONICAL_SURFACE ( 'NONE', #28, 4.000000000000000888, 0.7853981633974410625 ) ;
#144 = EDGE_LOOP ( 'NONE', ( #81 ) ) ;
#145 = ORIENTED_EDGE ( 'NONE', *, *, #203, .F. ) ;
#146 = EDGE_LOOP ( 'NONE', ( #148 ) ) ;
#147 = DATE_AND_TIME ( #21, #4 ) ;
#148 = ORIENTED_EDGE ( 'NONE', *, *, #24, .F. ) ;
#149 = DIRECTION ( 'NONE',  ( 4.275831445896959482E-31, 1.000000000000000000, 1.224646799147353207E-16 ) ) ;
#150 = FACE_OUTER_BOUND ( 'NONE', #198, .T. ) ;
#151 = ADVANCED_FACE ( 'NONE', ( #186, #170 ), #54, .T. ) ;
#152 = CARTESIAN_POINT ( 'NONE',  ( 2.478951750578623799E-13, -8.694992273946204985E-15, 70.99999999999998579 ) ) ;
#153 = CARTESIAN_POINT ( 'NONE',  ( 5.586370142149013368E-14, -1.964028510409041694E-15, 16.00000000000000000 ) ) ;
#154 = DIRECTION ( 'NONE',  ( -3.491481338843133355E-15, 1.227517819005651059E-16, -1.000000000000000000 ) ) ;
#155 = CARTESIAN_POINT ( 'NONE',  ( -3.469105965179885094E-30, -4.050000000000002487, -9.935914382774095801E-16 ) ) ;
#156 = VERTEX_POINT ( 'NONE', #16 ) ;
#157 = CARTESIAN_POINT ( 'NONE',  ( 6.982962677686249947E-16, -2.453312193277550091E-17, 0.1999999999999995115 ) ) ;
#158 = DATE_AND_TIME ( #160, #70 ) ;
#159 = EDGE_CURVE ( 'NONE', #75, #75, #201, .T. ) ;
#160 = CALENDAR_DATE ( 2021, 1, 11 ) ;
#161 = AXIS2_PLACEMENT_3D ( 'NONE', #224, #208, #149 ) ;
#162 = EDGE_LOOP ( 'NONE', ( #6 ) ) ;
#163 = ADVANCED_FACE ( 'NONE', ( #187 ), #84, .F. ) ;
#164 = PERSON_AND_ORGANIZATION_ROLE ( 'design_supplier' ) ;
#165 = ORIENTED_EDGE ( 'NONE', *, *, #90, .T. ) ;
#166 = CIRCLE ( 'NONE', #9, 4.050000000000002487 ) ;
#167 = ADVANCED_BREP_SHAPE_REPRESENTATION ( '57195', ( #142, #220, #189 ), #52 ) ;
#168 = DESIGN_CONTEXT ( 'detailed design', #114, 'design' ) ;
#169 = DIRECTION ( 'NONE',  ( 0.0000000000000000000, 1.000000000000000000, 0.0000000000000000000 ) ) ;
#170 = FACE_OUTER_BOUND ( 'NONE', #183, .T. ) ;
#171 = AXIS2_PLACEMENT_3D ( 'NONE', #153, #109, #27 ) ;
#172 = FACE_OUTER_BOUND ( 'NONE', #124, .T. ) ;
#173 = PLANE ( 'NONE',  #241 ) ;
#174 = DIRECTION ( 'NONE',  ( 3.491481338843133355E-15, -1.227517819005651059E-16, 1.000000000000000000 ) ) ;
#175 = APPROVAL_DATE_TIME ( #94, #190 ) ;
#176 = PERSON_AND_ORGANIZATION ( #209, #111 ) ;
#177 = EDGE_LOOP ( 'NONE', ( #65 ) ) ;
#178 = CC_DESIGN_PERSON_AND_ORGANIZATION_ASSIGNMENT ( #37, #212, ( #33 ) ) ;
#179 = AXIS2_PLACEMENT_3D ( 'NONE', #130, #222, #32 ) ;
#180 = LOCAL_TIME ( 10, 45, 52.00000000000000000, #1 ) ;
#181 = SECURITY_CLASSIFICATION_LEVEL ( 'unclassified' ) ;
#182 = ORIENTED_EDGE ( 'NONE', *, *, #90, .F. ) ;
#183 = EDGE_LOOP ( 'NONE', ( #82 ) ) ;
#184 = AXIS2_PLACEMENT_3D ( 'NONE', #219, #10, #223 ) ;
#185 = DIRECTION ( 'NONE',  ( -4.285855558155654155E-31, -1.000000000000000000, -1.227517819005651305E-16 ) ) ;
#186 = FACE_OUTER_BOUND ( 'NONE', #102, .T. ) ;
#187 = FACE_OUTER_BOUND ( 'NONE', #23, .T. ) ;
#188 = DIRECTION ( 'NONE',  ( -3.491481338843133355E-15, 1.224646799147353207E-16, -1.000000000000000000 ) ) ;
#189 = AXIS2_PLACEMENT_3D ( 'NONE', #77, #41, #226 ) ;
#190 = APPROVAL ( #192, 'UNSPECIFIED' ) ;
#191 = PERSON_AND_ORGANIZATION ( #209, #111 ) ;
#192 = APPROVAL_STATUS ( 'not_yet_approved' ) ;
#193 = PERSON_AND_ORGANIZATION_ROLE ( 'creator' ) ;
#194 = APPROVAL_PERSON_ORGANIZATION ( #176, #86, #217 ) ;
#195 = PERSON_AND_ORGANIZATION ( #209, #111 ) ;
#196 = PERSON_AND_ORGANIZATION_ROLE ( 'creator' ) ;
#197 = ORIENTED_EDGE ( 'NONE', *, *, #199, .F. ) ;
#198 = EDGE_LOOP ( 'NONE', ( #213 ) ) ;
#199 = EDGE_CURVE ( 'NONE', #156, #156, #98, .T. ) ;
#200 = CYLINDRICAL_SURFACE ( 'NONE', #161, 4.999999999999997335 ) ;
#201 = CIRCLE ( 'NONE', #184, 4.249999999999998224 ) ;
#202 = DIRECTION ( 'NONE',  ( 3.491481338843133355E-15, -1.226656096638776648E-16, 1.000000000000000000 ) ) ;
#203 = EDGE_CURVE ( 'NONE', #120, #120, #166, .T. ) ;
#204 = CARTESIAN_POINT ( 'NONE',  ( 6.982962677686249947E-16, -2.453312193277550091E-17, 0.1999999999999995115 ) ) ;
#205 = CARTESIAN_POINT ( 'NONE',  ( 2.513866563967056016E-13, 2.999519565323702626E-32, 72.00000000000000000 ) ) ;
#206 = CONICAL_SURFACE ( 'NONE', #216, 4.250000000000000000, 0.7853981633974430610 ) ;
#207 = LOCAL_TIME ( 10, 45, 52.00000000000000000, #119 ) ;
#208 = DIRECTION ( 'NONE',  ( -3.491481338843133355E-15, 1.224646799147353207E-16, -1.000000000000000000 ) ) ;
#209 = PERSON ( 'UNSPECIFIED', 'UNSPECIFIED', 'UNSPECIFIED', ('UNSPECIFIED'), ('UNSPECIFIED'), ('UNSPECIFIED') ) ;
#210 = VERTEX_POINT ( 'NONE', #140 ) ;
#211 = CC_DESIGN_DATE_AND_TIME_ASSIGNMENT ( #20, #3, ( #50 ) ) ;
#212 = PERSON_AND_ORGANIZATION_ROLE ( 'design_owner' ) ;
#213 = ORIENTED_EDGE ( 'NONE', *, *, #159, .T. ) ;
#214 = EDGE_LOOP ( 'NONE', ( #103 ) ) ;
#215 = EDGE_LOOP ( 'NONE', ( #48 ) ) ;
#216 = AXIS2_PLACEMENT_3D ( 'NONE', #204, #202, #35 ) ;
#217 = APPROVAL_ROLE ( '' ) ;
#218 = EDGE_LOOP ( 'NONE', ( #197 ) ) ;
#219 = CARTESIAN_POINT ( 'NONE',  ( 5.586370142149013368E-14, -1.964028510409041694E-15, 16.00000000000000000 ) ) ;
#220 = MANIFOLD_SOLID_BREP ( 'Corps-Déplacer/Copier1[2]', #22 ) ;
#221 = DIRECTION ( 'NONE',  ( 3.491481338843133355E-15, -1.227517819005651059E-16, 1.000000000000000000 ) ) ;
#222 = DIRECTION ( 'NONE',  ( 3.491481338843133355E-15, -1.224646799147353207E-16, 1.000000000000000000 ) ) ;
#223 = DIRECTION ( 'NONE',  ( 0.0000000000000000000, -1.000000000000000000, 0.0000000000000000000 ) ) ;
#224 = CARTESIAN_POINT ( 'NONE',  ( 0.0000000000000000000, 0.0000000000000000000, 0.0000000000000000000 ) ) ;
#225 = APPLICATION_CONTEXT ( 'configuration controlled 3d designs of mechanical parts and assemblies' ) ;
#226 = DIRECTION ( 'NONE',  ( 1.000000000000000000, 0.0000000000000000000, 0.0000000000000000000 ) ) ;
#227 = APPLICATION_PROTOCOL_DEFINITION ( 'international standard', 'config_control_design', 1994, #114 ) ;
#228 = APPROVAL ( #240, 'UNSPECIFIED' ) ;
#229 = FACE_BOUND ( 'NONE', #177, .T. ) ;
#230 = APPROVAL_DATE_TIME ( #127, #228 ) ;
#231 = ADVANCED_FACE ( 'NONE', ( #129, #229 ), #143, .T. ) ;
#232 = PERSON_AND_ORGANIZATION ( #209, #111 ) ;
#233 = DATE_TIME_ROLE ( 'classification_date' ) ;
#234 = PERSON_AND_ORGANIZATION_ROLE ( 'classification_officer' ) ;
#235 = CC_DESIGN_APPROVAL ( #228, ( #122 ) ) ;
#236 = DIRECTION ( 'NONE',  ( 3.491481338843133355E-15, -1.224646799147353207E-16, 1.000000000000000000 ) ) ;
#237 = PLANE ( 'NONE',  #179 ) ;
#238 = DIRECTION ( 'NONE',  ( -4.390765363205567760E-31, -1.000000000000000000, -1.227517819005651059E-16 ) ) ;
#239 = DIRECTION ( 'NONE',  ( -3.491481338843133355E-15, 1.224646799147353207E-16, -1.000000000000000000 ) ) ;
#240 = APPROVAL_STATUS ( 'not_yet_approved' ) ;
#241 = AXIS2_PLACEMENT_3D ( 'NONE', #108, #236, #132 ) ;
#242 = DIRECTION ( 'NONE',  ( -3.491481338843133355E-15, 1.224646799147353207E-16, -1.000000000000000000 ) ) ;
#243 = EDGE_CURVE ( 'NONE', #74, #74, #105, .T. ) ;
ENDSEC;
END-ISO-10303-21;
