ISO-10303-21;
HEADER;
FILE_DESCRIPTION (( 'STEP AP203' ),
    '1' );
FILE_NAME ('57187.step',
    '2021-11-01T09:45:51',
    ( '' ),
    ( '' ),
    'SwSTEP 2.0',
    'SolidWorks 2019',
    '' );
FILE_SCHEMA (( 'CONFIG_CONTROL_DESIGN' ));
ENDSEC;

DATA;
#1 = FACE_BOUND ( 'NONE', #42, .T. ) ;
#2 = CARTESIAN_POINT ( 'NONE',  ( 5.586370142149013368E-14, 3.999999999999993339, 16.00000000000000000 ) ) ;
#3 = APPROVAL_STATUS ( 'not_yet_approved' ) ;
#4 =( LENGTH_UNIT ( ) NAMED_UNIT ( * ) SI_UNIT ( .MILLI., .METRE. ) );
#5 = PERSON_AND_ORGANIZATION_ROLE ( 'design_owner' ) ;
#6 = APPLICATION_CONTEXT ( 'configuration controlled 3d designs of mechanical parts and assemblies' ) ;
#7 = ORIENTED_EDGE ( 'NONE', *, *, #152, .F. ) ;
#8 = EDGE_CURVE ( 'NONE', #161, #161, #47, .T. ) ;
#9 = FACE_OUTER_BOUND ( 'NONE', #134, .T. ) ;
#10 = DIRECTION ( 'NONE',  ( 3.491481338843133355E-15, -1.224646799147353207E-16, 1.000000000000000000 ) ) ;
#11 = DIRECTION ( 'NONE',  ( 4.275831445896958607E-31, 1.000000000000000000, 1.224646799147353207E-16 ) ) ;
#12 = VERTEX_POINT ( 'NONE', #2 ) ;
#13 = CC_DESIGN_DATE_AND_TIME_ASSIGNMENT ( #200, #92, ( #208 ) ) ;
#14 = FACE_OUTER_BOUND ( 'NONE', #216, .T. ) ;
#15 = EDGE_CURVE ( 'NONE', #29, #29, #123, .T. ) ;
#16 = CARTESIAN_POINT ( 'NONE',  ( 2.171701392760429073E-13, 3.999999999999993339, 62.20000000000000284 ) ) ;
#17 = AXIS2_PLACEMENT_3D ( 'NONE', #90, #206, #64 ) ;
#18 = PERSON_AND_ORGANIZATION_ROLE ( 'creator' ) ;
#19 = CARTESIAN_POINT ( 'NONE',  ( 0.0000000000000000000, 0.0000000000000000000, 0.0000000000000000000 ) ) ;
#20 = APPROVAL_DATE_TIME ( #109, #204 ) ;
#21 = AXIS2_PLACEMENT_3D ( 'NONE', #86, #10, #156 ) ;
#22 = CARTESIAN_POINT ( 'NONE',  ( 6.982962677686250933E-16, -2.453312193277550399E-17, 0.1999999999999995393 ) ) ;
#23 = AXIS2_PLACEMENT_3D ( 'NONE', #173, #88, #158 ) ;
#24 = ORIENTED_EDGE ( 'NONE', *, *, #8, .F. ) ;
#25 = DIRECTION ( 'NONE',  ( 3.491481338843133355E-15, -1.224646799147353207E-16, 1.000000000000000000 ) ) ;
#26 = AXIS2_PLACEMENT_3D ( 'NONE', #102, #175, #223 ) ;
#27 = DIRECTION ( 'NONE',  ( -3.491481338843133355E-15, 1.224646799147353207E-16, -1.000000000000000000 ) ) ;
#28 = DIRECTION ( 'NONE',  ( -3.491481338843133355E-15, 1.224646799147353207E-16, -1.000000000000000000 ) ) ;
#29 = VERTEX_POINT ( 'NONE', #176 ) ;
#30 = ADVANCED_FACE ( 'NONE', ( #187, #157 ), #133, .T. ) ;
#31 = DIRECTION ( 'NONE',  ( 3.491481338843133355E-15, -1.226656096638776648E-16, 1.000000000000000000 ) ) ;
#32 = MECHANICAL_CONTEXT ( 'NONE', #6, 'mechanical' ) ;
#33 = PRODUCT_DEFINITION ( 'UNKNOWN', '', #138, #139 ) ;
#34 = APPLICATION_PROTOCOL_DEFINITION ( 'international standard', 'config_control_design', 1994, #120 ) ;
#35 = PERSON_AND_ORGANIZATION ( #60, #220 ) ;
#36 = AXIS2_PLACEMENT_3D ( 'NONE', #66, #28, #221 ) ;
#37 = APPROVAL_STATUS ( 'not_yet_approved' ) ;
#38 = EDGE_LOOP ( 'NONE', ( #85 ) ) ;
#39 = CIRCLE ( 'NONE', #26, 3.200000000000000622 ) ;
#40 = ORIENTED_EDGE ( 'NONE', *, *, #8, .T. ) ;
#41 = DIRECTION ( 'NONE',  ( -4.333342374871280669E-31, -1.000000000000000000, -1.219727444046192488E-16 ) ) ;
#42 = EDGE_LOOP ( 'NONE', ( #82 ) ) ;
#43 =( GEOMETRIC_REPRESENTATION_CONTEXT ( 3 ) GLOBAL_UNCERTAINTY_ASSIGNED_CONTEXT ( ( #65 ) ) GLOBAL_UNIT_ASSIGNED_CONTEXT ( ( #4, #147, #183 ) ) REPRESENTATION_CONTEXT ( 'NONE', 'WORKASPACE' ) );
#44 = EDGE_LOOP ( 'NONE', ( #184 ) ) ;
#45 = PLANE ( 'NONE',  #191 ) ;
#46 = DIRECTION ( 'NONE',  ( -3.491481338843133355E-15, 1.224646799147353207E-16, -1.000000000000000000 ) ) ;
#47 = CIRCLE ( 'NONE', #195, 4.000000000000000000 ) ;
#48 = CARTESIAN_POINT ( 'NONE',  ( 5.586370142149013368E-14, -1.959434878635765131E-15, 16.00000000000000000 ) ) ;
#49 = EDGE_CURVE ( 'NONE', #12, #12, #93, .T. ) ;
#50 = CARTESIAN_POINT ( 'NONE',  ( 0.0000000000000000000, 0.0000000000000000000, 0.0000000000000000000 ) ) ;
#51 = VERTEX_POINT ( 'NONE', #121 ) ;
#52 = CONICAL_SURFACE ( 'NONE', #67, 3.200000000000000622, 0.7853981633974516097 ) ;
#53 = SECURITY_CLASSIFICATION_LEVEL ( 'unclassified' ) ;
#54 = APPROVAL_ROLE ( '' ) ;
#55 = PERSON_AND_ORGANIZATION_ROLE ( 'design_supplier' ) ;
#56 = CC_DESIGN_PERSON_AND_ORGANIZATION_ASSIGNMENT ( #211, #55, ( #138 ) ) ;
#57 = CALENDAR_DATE ( 2021, 1, 11 ) ;
#58 = APPROVAL_ROLE ( '' ) ;
#59 = DIRECTION ( 'NONE',  ( 3.491481338843133355E-15, -1.226656096638776648E-16, 1.000000000000000000 ) ) ;
#60 = PERSON ( 'UNSPECIFIED', 'UNSPECIFIED', 'UNSPECIFIED', ('UNSPECIFIED'), ('UNSPECIFIED'), ('UNSPECIFIED') ) ;
#61 = EDGE_CURVE ( 'NONE', #69, #69, #39, .T. ) ;
#62 = EDGE_LOOP ( 'NONE', ( #136 ) ) ;
#63 = CARTESIAN_POINT ( 'NONE',  ( -6.413786353522005134E-31, 2.249653418127174030E-32, -1.836981421658449264E-16 ) ) ;
#64 = DIRECTION ( 'NONE',  ( 0.0000000000000000000, 1.000000000000000000, 0.0000000000000000000 ) ) ;
#65 = UNCERTAINTY_MEASURE_WITH_UNIT (LENGTH_MEASURE( 1.000000000000000082E-05 ), #4, 'distance_accuracy_value', 'NONE');
#66 = CARTESIAN_POINT ( 'NONE',  ( 2.199633243471174140E-13, 2.399615652258960951E-32, 63.00000000000000000 ) ) ;
#67 = AXIS2_PLACEMENT_3D ( 'NONE', #140, #46, #209 ) ;
#68 = FACE_OUTER_BOUND ( 'NONE', #203, .T. ) ;
#69 = VERTEX_POINT ( 'NONE', #145 ) ;
#70 = VERTEX_POINT ( 'NONE', #16 ) ;
#71 = APPROVAL_PERSON_ORGANIZATION ( #196, #182, #54 ) ;
#72 = APPLICATION_PROTOCOL_DEFINITION ( 'international standard', 'config_control_design', 1994, #6 ) ;
#73 = MANIFOLD_SOLID_BREP ( 'Corps-Déplacer/Copier1[2]', #180 ) ;
#74 = ADVANCED_FACE ( 'NONE', ( #68, #172 ), #118, .T. ) ;
#75 = PERSON_AND_ORGANIZATION ( #60, #220 ) ;
#76 = AXIS2_PLACEMENT_3D ( 'NONE', #137, #99, #11 ) ;
#77 = SHAPE_DEFINITION_REPRESENTATION ( #105, #153 ) ;
#78 = LOCAL_TIME ( 10, 45, 51.00000000000000000, #210 ) ;
#79 = ADVANCED_FACE ( 'NONE', ( #101 ), #45, .F. ) ;
#80 = MANIFOLD_SOLID_BREP ( 'Corps-Déplacer/Copier1[1]', #165 ) ;
#81 = DIRECTION ( 'NONE',  ( 3.491481338843133355E-15, -1.226656096638776648E-16, 1.000000000000000000 ) ) ;
#82 = ORIENTED_EDGE ( 'NONE', *, *, #61, .T. ) ;
#83 = DIRECTION ( 'NONE',  ( -4.282846870592449122E-31, -1.000000000000000000, -1.226656096638776648E-16 ) ) ;
#84 = CC_DESIGN_DATE_AND_TIME_ASSIGNMENT ( #106, #178, ( #33 ) ) ;
#85 = ORIENTED_EDGE ( 'NONE', *, *, #163, .T. ) ;
#86 = CARTESIAN_POINT ( 'NONE',  ( 5.586370142149013368E-14, 2.999519565323708647E-32, 16.00000000000000000 ) ) ;
#87 = APPROVAL_PERSON_ORGANIZATION ( #75, #98, #95 ) ;
#88 = DIRECTION ( 'NONE',  ( -3.491481338843133355E-15, 1.224646799147353207E-16, -1.000000000000000000 ) ) ;
#89 = ADVANCED_FACE ( 'NONE', ( #9 ), #143, .T. ) ;
#90 = CARTESIAN_POINT ( 'NONE',  ( 2.171701392760429073E-13, -7.617303090696536944E-15, 62.20000000000000284 ) ) ;
#91 = DIRECTION ( 'NONE',  ( -4.275831445896958607E-31, -1.000000000000000000, -1.224646799147353207E-16 ) ) ;
#92 = DATE_TIME_ROLE ( 'classification_date' ) ;
#93 = CIRCLE ( 'NONE', #23, 3.999999999999994671 ) ;
#94 = CALENDAR_DATE ( 2021, 1, 11 ) ;
#95 = APPROVAL_ROLE ( '' ) ;
#96 = APPROVAL_PERSON_ORGANIZATION ( #214, #204, #58 ) ;
#97 = ORIENTED_EDGE ( 'NONE', *, *, #61, .F. ) ;
#98 = APPROVAL ( #3, 'UNSPECIFIED' ) ;
#99 = DIRECTION ( 'NONE',  ( -3.491481338843133355E-15, 1.224646799147353207E-16, -1.000000000000000000 ) ) ;
#100 = CARTESIAN_POINT ( 'NONE',  ( 5.586370142149013368E-14, 2.999519565323708647E-32, 16.00000000000000000 ) ) ;
#101 = FACE_OUTER_BOUND ( 'NONE', #44, .T. ) ;
#102 = CARTESIAN_POINT ( 'NONE',  ( 2.199633243471174140E-13, -7.715274834628325378E-15, 63.00000000000000000 ) ) ;
#103 = CIRCLE ( 'NONE', #160, 3.999999999999994671 ) ;
#104 = CARTESIAN_POINT ( 'NONE',  ( 6.982962677686250933E-16, -2.453312193277550399E-17, 0.1999999999999995393 ) ) ;
#105 = PRODUCT_DEFINITION_SHAPE ( 'NONE', 'NONE',  #33 ) ;
#106 = DATE_AND_TIME ( #94, #181 ) ;
#107 = AXIS2_PLACEMENT_3D ( 'NONE', #111, #59, #83 ) ;
#108 = PERSON_AND_ORGANIZATION_ROLE ( 'creator' ) ;
#109 = DATE_AND_TIME ( #201, #215 ) ;
#110 = AXIS2_PLACEMENT_3D ( 'NONE', #50, #27, #119 ) ;
#111 = CARTESIAN_POINT ( 'NONE',  ( -1.627481810825131210E-30, 3.057917272063404915E-32, -4.661293167227353184E-16 ) ) ;
#112 = ORIENTED_EDGE ( 'NONE', *, *, #15, .T. ) ;
#113 = ORIENTED_EDGE ( 'NONE', *, *, #49, .F. ) ;
#114 = CC_DESIGN_APPROVAL ( #204, ( #208 ) ) ;
#115 = DIRECTION ( 'NONE',  ( -3.491481338843133355E-15, 1.224646799147353207E-16, -1.000000000000000000 ) ) ;
#116 = FACE_OUTER_BOUND ( 'NONE', #171, .T. ) ;
#117 = CIRCLE ( 'NONE', #17, 4.000000000000000888 ) ;
#118 = CYLINDRICAL_SURFACE ( 'NONE', #76, 3.999999999999994227 ) ;
#119 = DIRECTION ( 'NONE',  ( 4.275831445896958607E-31, 1.000000000000000000, 1.224646799147353207E-16 ) ) ;
#120 = APPLICATION_CONTEXT ( 'configuration controlled 3d designs of mechanical parts and assemblies' ) ;
#121 = CARTESIAN_POINT ( 'NONE',  ( 5.586370142149013368E-14, 3.999999999999993339, 16.00000000000000000 ) ) ;
#122 = CC_DESIGN_PERSON_AND_ORGANIZATION_ASSIGNMENT ( #129, #125, ( #208 ) ) ;
#123 = CIRCLE ( 'NONE', #107, 3.800000000000001599 ) ;
#124 = CC_DESIGN_APPROVAL ( #182, ( #33 ) ) ;
#125 = PERSON_AND_ORGANIZATION_ROLE ( 'classification_officer' ) ;
#126 = ADVANCED_FACE ( 'NONE', ( #219 ), #205, .F. ) ;
#127 = DATE_AND_TIME ( #57, #78 ) ;
#128 = AXIS2_PLACEMENT_3D ( 'NONE', #104, #31, #177 ) ;
#129 = PERSON_AND_ORGANIZATION ( #60, #220 ) ;
#130 = CALENDAR_DATE ( 2021, 1, 11 ) ;
#131 = CC_DESIGN_SECURITY_CLASSIFICATION ( #208, ( #138 ) ) ;
#132 = COORDINATED_UNIVERSAL_TIME_OFFSET ( 1, 0, .AHEAD. ) ;
#133 = CONICAL_SURFACE ( 'NONE', #128, 4.000000000000000000, 0.7853981633974441712 ) ;
#134 = EDGE_LOOP ( 'NONE', ( #113 ) ) ;
#135 = CC_DESIGN_APPROVAL ( #98, ( #138 ) ) ;
#136 = ORIENTED_EDGE ( 'NONE', *, *, #163, .F. ) ;
#137 = CARTESIAN_POINT ( 'NONE',  ( 0.0000000000000000000, 0.0000000000000000000, 0.0000000000000000000 ) ) ;
#138 = PRODUCT_DEFINITION_FORMATION_WITH_SPECIFIED_SOURCE ( 'ANY', '', #146, .NOT_KNOWN. ) ;
#139 = DESIGN_CONTEXT ( 'detailed design', #120, 'design' ) ;
#140 = CARTESIAN_POINT ( 'NONE',  ( 2.199633243471174140E-13, -7.715274834628325378E-15, 63.00000000000000000 ) ) ;
#141 = DIRECTION ( 'NONE',  ( 0.0000000000000000000, 1.000000000000000000, 0.0000000000000000000 ) ) ;
#142 = AXIS2_PLACEMENT_3D ( 'NONE', #19, #149, #179 ) ;
#143 = PLANE ( 'NONE',  #21 ) ;
#144 = CC_DESIGN_PERSON_AND_ORGANIZATION_ASSIGNMENT ( #35, #18, ( #33 ) ) ;
#145 = CARTESIAN_POINT ( 'NONE',  ( 2.199633243471174140E-13, 3.199999999999992628, 63.00000000000000000 ) ) ;
#146 = PRODUCT ( '57187', '57187', '', ( #32 ) ) ;
#147 =( NAMED_UNIT ( * ) PLANE_ANGLE_UNIT ( ) SI_UNIT ( $, .RADIAN. ) );
#148 = APPROVAL_DATE_TIME ( #150, #98 ) ;
#149 = DIRECTION ( 'NONE',  ( 0.0000000000000000000, 0.0000000000000000000, 1.000000000000000000 ) ) ;
#150 = DATE_AND_TIME ( #166, #174 ) ;
#151 = PERSON_AND_ORGANIZATION ( #60, #220 ) ;
#152 = EDGE_CURVE ( 'NONE', #51, #51, #103, .T. ) ;
#153 = ADVANCED_BREP_SHAPE_REPRESENTATION ( '57187', ( #80, #73, #142 ), #43 ) ;
#154 = ORIENTED_EDGE ( 'NONE', *, *, #49, .T. ) ;
#155 = PLANE ( 'NONE',  #170 ) ;
#156 = DIRECTION ( 'NONE',  ( -4.275831445896958607E-31, -1.000000000000000000, -1.224646799147353207E-16 ) ) ;
#157 = FACE_OUTER_BOUND ( 'NONE', #169, .T. ) ;
#158 = DIRECTION ( 'NONE',  ( 0.0000000000000000000, 1.000000000000000000, 0.0000000000000000000 ) ) ;
#159 = ADVANCED_FACE ( 'NONE', ( #14 ), #155, .F. ) ;
#160 = AXIS2_PLACEMENT_3D ( 'NONE', #48, #115, #141 ) ;
#161 = VERTEX_POINT ( 'NONE', #193 ) ;
#162 = LOCAL_TIME ( 10, 45, 51.00000000000000000, #199 ) ;
#163 = EDGE_CURVE ( 'NONE', #70, #70, #117, .T. ) ;
#164 = APPROVAL_STATUS ( 'not_yet_approved' ) ;
#165 = CLOSED_SHELL ( 'NONE', ( #79, #198, #168, #126 ) ) ;
#166 = CALENDAR_DATE ( 2021, 1, 11 ) ;
#167 = COORDINATED_UNIVERSAL_TIME_OFFSET ( 1, 0, .AHEAD. ) ;
#168 = ADVANCED_FACE ( 'NONE', ( #194, #1 ), #52, .T. ) ;
#169 = EDGE_LOOP ( 'NONE', ( #24 ) ) ;
#170 = AXIS2_PLACEMENT_3D ( 'NONE', #63, #189, #192 ) ;
#171 = EDGE_LOOP ( 'NONE', ( #7 ) ) ;
#172 = FACE_OUTER_BOUND ( 'NONE', #218, .T. ) ;
#173 = CARTESIAN_POINT ( 'NONE',  ( 5.586370142149013368E-14, -1.959434878635765131E-15, 16.00000000000000000 ) ) ;
#174 = LOCAL_TIME ( 10, 45, 51.00000000000000000, #167 ) ;
#175 = DIRECTION ( 'NONE',  ( -3.491481338843133355E-15, 1.224646799147353207E-16, -1.000000000000000000 ) ) ;
#176 = CARTESIAN_POINT ( 'NONE',  ( -3.254963621650262419E-30, -3.800000000000001599, -9.322586334454706368E-16 ) ) ;
#177 = DIRECTION ( 'NONE',  ( -4.333342374871280669E-31, -1.000000000000000000, -1.219727444046192488E-16 ) ) ;
#178 = DATE_TIME_ROLE ( 'creation_date' ) ;
#179 = DIRECTION ( 'NONE',  ( 1.000000000000000000, 0.0000000000000000000, 0.0000000000000000000 ) ) ;
#180 = CLOSED_SHELL ( 'NONE', ( #74, #89, #30, #159 ) ) ;
#181 = LOCAL_TIME ( 10, 45, 51.00000000000000000, #212 ) ;
#182 = APPROVAL ( #164, 'UNSPECIFIED' ) ;
#183 =( NAMED_UNIT ( * ) SI_UNIT ( $, .STERADIAN. ) SOLID_ANGLE_UNIT ( ) );
#184 = ORIENTED_EDGE ( 'NONE', *, *, #152, .T. ) ;
#185 = ORIENTED_EDGE ( 'NONE', *, *, #15, .F. ) ;
#186 = EDGE_LOOP ( 'NONE', ( #97 ) ) ;
#187 = FACE_BOUND ( 'NONE', #202, .T. ) ;
#188 = PRODUCT_RELATED_PRODUCT_CATEGORY ( 'detail', '', ( #146 ) ) ;
#189 = DIRECTION ( 'NONE',  ( 3.491481338843133355E-15, -1.224646799147353207E-16, 1.000000000000000000 ) ) ;
#190 = CYLINDRICAL_SURFACE ( 'NONE', #110, 3.999999999999998224 ) ;
#191 = AXIS2_PLACEMENT_3D ( 'NONE', #100, #25, #91 ) ;
#192 = DIRECTION ( 'NONE',  ( -4.275831445896958607E-31, -1.000000000000000000, -1.224646799147353207E-16 ) ) ;
#193 = CARTESIAN_POINT ( 'NONE',  ( 6.982962677686234170E-16, -4.000000000000000000, 0.1999999999999990674 ) ) ;
#194 = FACE_OUTER_BOUND ( 'NONE', #62, .T. ) ;
#195 = AXIS2_PLACEMENT_3D ( 'NONE', #22, #81, #41 ) ;
#196 = PERSON_AND_ORGANIZATION ( #60, #220 ) ;
#197 = APPROVAL_DATE_TIME ( #127, #182 ) ;
#198 = ADVANCED_FACE ( 'NONE', ( #116, #207 ), #190, .T. ) ;
#199 = COORDINATED_UNIVERSAL_TIME_OFFSET ( 1, 0, .AHEAD. ) ;
#200 = DATE_AND_TIME ( #130, #162 ) ;
#201 = CALENDAR_DATE ( 2021, 1, 11 ) ;
#202 = EDGE_LOOP ( 'NONE', ( #112 ) ) ;
#203 = EDGE_LOOP ( 'NONE', ( #154 ) ) ;
#204 = APPROVAL ( #37, 'UNSPECIFIED' ) ;
#205 = PLANE ( 'NONE',  #36 ) ;
#206 = DIRECTION ( 'NONE',  ( -3.491481338843133355E-15, 1.224646799147353207E-16, -1.000000000000000000 ) ) ;
#207 = FACE_OUTER_BOUND ( 'NONE', #38, .T. ) ;
#208 = SECURITY_CLASSIFICATION ( '', '', #53 ) ;
#209 = DIRECTION ( 'NONE',  ( 0.0000000000000000000, 1.000000000000000000, 0.0000000000000000000 ) ) ;
#210 = COORDINATED_UNIVERSAL_TIME_OFFSET ( 1, 0, .AHEAD. ) ;
#211 = PERSON_AND_ORGANIZATION ( #60, #220 ) ;
#212 = COORDINATED_UNIVERSAL_TIME_OFFSET ( 1, 0, .AHEAD. ) ;
#213 = PERSON_AND_ORGANIZATION ( #60, #220 ) ;
#214 = PERSON_AND_ORGANIZATION ( #60, #220 ) ;
#215 = LOCAL_TIME ( 10, 45, 51.00000000000000000, #132 ) ;
#216 = EDGE_LOOP ( 'NONE', ( #185 ) ) ;
#217 = CC_DESIGN_PERSON_AND_ORGANIZATION_ASSIGNMENT ( #151, #5, ( #146 ) ) ;
#218 = EDGE_LOOP ( 'NONE', ( #40 ) ) ;
#219 = FACE_OUTER_BOUND ( 'NONE', #186, .T. ) ;
#220 = ORGANIZATION ( 'UNSPECIFIED', 'UNSPECIFIED', '' ) ;
#221 = DIRECTION ( 'NONE',  ( 4.275831445896958607E-31, 1.000000000000000000, 1.224646799147353207E-16 ) ) ;
#222 = CC_DESIGN_PERSON_AND_ORGANIZATION_ASSIGNMENT ( #213, #108, ( #138 ) ) ;
#223 = DIRECTION ( 'NONE',  ( 0.0000000000000000000, 1.000000000000000000, 0.0000000000000000000 ) ) ;
ENDSEC;
END-ISO-10303-21;
