ISO-10303-21;
HEADER;
FILE_DESCRIPTION (( 'STEP AP203' ),
    '1' );
FILE_NAME ('57186.step',
    '2021-11-01T09:45:51',
    ( '' ),
    ( '' ),
    'SwSTEP 2.0',
    'SolidWorks 2019',
    '' );
FILE_SCHEMA (( 'CONFIG_CONTROL_DESIGN' ));
ENDSEC;

DATA;
#1 = AXIS2_PLACEMENT_3D ( 'NONE', #29, #216, #71 ) ;
#2 = PERSON_AND_ORGANIZATION ( #172, #201 ) ;
#3 = ORIENTED_EDGE ( 'NONE', *, *, #232, .F. ) ;
#4 = DATE_TIME_ROLE ( 'classification_date' ) ;
#5 = EDGE_LOOP ( 'NONE', ( #146 ) ) ;
#6 = VERTEX_POINT ( 'NONE', #210 ) ;
#7 = DIRECTION ( 'NONE',  ( 3.491481338843133355E-15, -1.227517819005651059E-16, 1.000000000000000000 ) ) ;
#8 = CONICAL_SURFACE ( 'NONE', #152, 3.750000000000000000, 0.7853981633974441712 ) ;
#9 = CARTESIAN_POINT ( 'NONE',  ( 0.0000000000000000000, 0.0000000000000000000, 0.0000000000000000000 ) ) ;
#10 = VERTEX_POINT ( 'NONE', #85 ) ;
#11 = EDGE_CURVE ( 'NONE', #185, #185, #44, .T. ) ;
#12 = VERTEX_POINT ( 'NONE', #123 ) ;
#13 = CYLINDRICAL_SURFACE ( 'NONE', #109, 3.749999999999998224 ) ;
#14 = CLOSED_SHELL ( 'NONE', ( #65, #157, #68, #39, #119 ) ) ;
#15 = CARTESIAN_POINT ( 'NONE',  ( 0.0000000000000000000, 0.0000000000000000000, 0.0000000000000000000 ) ) ;
#16 = DIRECTION ( 'NONE',  ( 3.491481338843133355E-15, -1.224646799147353207E-16, 1.000000000000000000 ) ) ;
#17 = PRODUCT ( '57186', '57186', '', ( #171 ) ) ;
#18 = APPROVAL_ROLE ( '' ) ;
#19 = APPROVAL_STATUS ( 'not_yet_approved' ) ;
#20 = AXIS2_PLACEMENT_3D ( 'NONE', #147, #51, #187 ) ;
#21 = CC_DESIGN_SECURITY_CLASSIFICATION ( #140, ( #56 ) ) ;
#22 = FACE_OUTER_BOUND ( 'NONE', #198, .T. ) ;
#23 = CLOSED_SHELL ( 'NONE', ( #132, #223, #89, #176 ) ) ;
#24 =( GEOMETRIC_REPRESENTATION_CONTEXT ( 3 ) GLOBAL_UNCERTAINTY_ASSIGNED_CONTEXT ( ( #193 ) ) GLOBAL_UNIT_ASSIGNED_CONTEXT ( ( #197, #40, #108 ) ) REPRESENTATION_CONTEXT ( 'NONE', 'WORKASPACE' ) );
#25 = VERTEX_POINT ( 'NONE', #81 ) ;
#26 = EDGE_LOOP ( 'NONE', ( #228 ) ) ;
#27 = FACE_OUTER_BOUND ( 'NONE', #183, .T. ) ;
#28 = CYLINDRICAL_SURFACE ( 'NONE', #113, 3.999999999999998224 ) ;
#29 = CARTESIAN_POINT ( 'NONE',  ( -1.520410639060319697E-30, 2.681745977208134205E-32, -4.354629143067658961E-16 ) ) ;
#30 = AXIS2_PLACEMENT_3D ( 'NONE', #111, #131, #90 ) ;
#31 = DIRECTION ( 'NONE',  ( 3.491481338843133355E-15, -1.224646799147353207E-16, 1.000000000000000000 ) ) ;
#32 = DIRECTION ( 'NONE',  ( 1.000000000000000000, 0.0000000000000000000, 0.0000000000000000000 ) ) ;
#33 = FACE_BOUND ( 'NONE', #124, .T. ) ;
#34 = APPROVAL ( #153, 'UNSPECIFIED' ) ;
#35 = DIRECTION ( 'NONE',  ( 3.491481338843133355E-15, -1.227517819005651059E-16, 1.000000000000000000 ) ) ;
#36 = DIRECTION ( 'NONE',  ( -4.365441207277734308E-31, -1.000000000000000000, -1.228762462150238276E-16 ) ) ;
#37 = PERSON_AND_ORGANIZATION ( #172, #201 ) ;
#38 = APPROVAL_ROLE ( '' ) ;
#39 = ADVANCED_FACE ( 'NONE', ( #27, #106 ), #70, .F. ) ;
#40 =( NAMED_UNIT ( * ) PLANE_ANGLE_UNIT ( ) SI_UNIT ( $, .RADIAN. ) );
#41 = CC_DESIGN_DATE_AND_TIME_ASSIGNMENT ( #98, #4, ( #140 ) ) ;
#42 = APPROVAL_ROLE ( '' ) ;
#43 = CARTESIAN_POINT ( 'NONE',  ( -3.040821278120639394E-30, -3.550000000000001599, -8.709258286135317921E-16 ) ) ;
#44 = CIRCLE ( 'NONE', #78, 3.750000000000000000 ) ;
#45 = EDGE_CURVE ( 'NONE', #10, #10, #103, .T. ) ;
#46 = CARTESIAN_POINT ( 'NONE',  ( 6.982962677686251919E-16, -2.453312193277550707E-17, 0.1999999999999995670 ) ) ;
#47 = ORIENTED_EDGE ( 'NONE', *, *, #45, .F. ) ;
#48 = AXIS2_PLACEMENT_3D ( 'NONE', #225, #148, #117 ) ;
#49 = CARTESIAN_POINT ( 'NONE',  ( 5.586370142149013368E-14, 2.999519565323708647E-32, 16.00000000000000000 ) ) ;
#50 = APPROVAL_PERSON_ORGANIZATION ( #73, #227, #38 ) ;
#51 = DIRECTION ( 'NONE',  ( 3.491481338843133355E-15, -1.224646799147353207E-16, 1.000000000000000000 ) ) ;
#52 = CALENDAR_DATE ( 2021, 1, 11 ) ;
#53 = DIRECTION ( 'NONE',  ( 0.0000000000000000000, 1.000000000000000000, 0.0000000000000000000 ) ) ;
#54 = COORDINATED_UNIVERSAL_TIME_OFFSET ( 1, 0, .AHEAD. ) ;
#55 = FACE_OUTER_BOUND ( 'NONE', #84, .T. ) ;
#56 = PRODUCT_DEFINITION_FORMATION_WITH_SPECIFIED_SOURCE ( 'ANY', '', #17, .NOT_KNOWN. ) ;
#57 = PERSON_AND_ORGANIZATION_ROLE ( 'creator' ) ;
#58 = PERSON_AND_ORGANIZATION ( #172, #201 ) ;
#59 = PLANE ( 'NONE',  #180 ) ;
#60 = APPROVAL_PERSON_ORGANIZATION ( #2, #34, #42 ) ;
#61 = APPLICATION_CONTEXT ( 'configuration controlled 3d designs of mechanical parts and assemblies' ) ;
#62 = CONICAL_SURFACE ( 'NONE', #48, 3.200000000000000622, 0.7853981633974516097 ) ;
#63 = EDGE_LOOP ( 'NONE', ( #47 ) ) ;
#64 = EDGE_LOOP ( 'NONE', ( #178 ) ) ;
#65 = ADVANCED_FACE ( 'NONE', ( #184, #199 ), #28, .T. ) ;
#66 = PRODUCT_DEFINITION ( 'UNKNOWN', '', #56, #96 ) ;
#67 = CARTESIAN_POINT ( 'NONE',  ( 5.586370142149013368E-14, -1.734723475976807094E-15, 16.00000000000000000 ) ) ;
#68 = ADVANCED_FACE ( 'NONE', ( #114 ), #59, .F. ) ;
#69 = CARTESIAN_POINT ( 'NONE',  ( 2.171701392760429073E-13, 3.999999999999993339, 62.20000000000000284 ) ) ;
#70 = TOROIDAL_SURFACE ( 'NONE', #165, 11.74999999999999822, 8.000000000000000000 ) ;
#71 = DIRECTION ( 'NONE',  ( -4.282846870592448247E-31, -1.000000000000000000, -1.226656096638776648E-16 ) ) ;
#72 = CALENDAR_DATE ( 2021, 1, 11 ) ;
#73 = PERSON_AND_ORGANIZATION ( #172, #201 ) ;
#74 = CARTESIAN_POINT ( 'NONE',  ( 6.982962677686236142E-16, -3.750000000000000000, 0.1999999999999991229 ) ) ;
#75 = COORDINATED_UNIVERSAL_TIME_OFFSET ( 1, 0, .AHEAD. ) ;
#76 = DIRECTION ( 'NONE',  ( 0.0000000000000000000, 0.0000000000000000000, 1.000000000000000000 ) ) ;
#77 = DIRECTION ( 'NONE',  ( -4.285855558155653280E-31, -1.000000000000000000, -1.227517819005650812E-16 ) ) ;
#78 = AXIS2_PLACEMENT_3D ( 'NONE', #46, #127, #107 ) ;
#79 = MANIFOLD_SOLID_BREP ( 'Corps-Déplacer/Copier1[1]', #14 ) ;
#80 = SHAPE_DEFINITION_REPRESENTATION ( #133, #156 ) ;
#81 = CARTESIAN_POINT ( 'NONE',  ( 5.586370142149013368E-14, -3.750000000000000888, 16.00000000000000000 ) ) ;
#82 = ORIENTED_EDGE ( 'NONE', *, *, #219, .T. ) ;
#83 = DIRECTION ( 'NONE',  ( -4.393421307637210610E-31, -1.000000000000000000, -1.227517819005651059E-16 ) ) ;
#84 = EDGE_LOOP ( 'NONE', ( #159 ) ) ;
#85 = CARTESIAN_POINT ( 'NONE',  ( 6.279189491884146894E-14, 3.999999999999996447, 17.98431348329844326 ) ) ;
#86 = CARTESIAN_POINT ( 'NONE',  ( 2.199633243471174140E-13, 2.399615652258960951E-32, 63.00000000000000000 ) ) ;
#87 = PERSON_AND_ORGANIZATION_ROLE ( 'design_owner' ) ;
#88 = DIRECTION ( 'NONE',  ( 3.491481338843133355E-15, -1.227517819005651059E-16, 1.000000000000000000 ) ) ;
#89 = ADVANCED_FACE ( 'NONE', ( #33, #221 ), #8, .T. ) ;
#90 = DIRECTION ( 'NONE',  ( 0.0000000000000000000, -1.000000000000000000, 0.0000000000000000000 ) ) ;
#91 = APPROVAL ( #241, 'UNSPECIFIED' ) ;
#92 = CC_DESIGN_PERSON_AND_ORGANIZATION_ASSIGNMENT ( #207, #95, ( #56 ) ) ;
#93 = APPROVAL_DATE_TIME ( #192, #227 ) ;
#94 = CIRCLE ( 'NONE', #194, 3.749999999999998668 ) ;
#95 = PERSON_AND_ORGANIZATION_ROLE ( 'design_supplier' ) ;
#96 = DESIGN_CONTEXT ( 'detailed design', #236, 'design' ) ;
#97 = DIRECTION ( 'NONE',  ( -4.275831445896958607E-31, -1.000000000000000000, -1.224646799147353207E-16 ) ) ;
#98 = DATE_AND_TIME ( #209, #104 ) ;
#99 = VERTEX_POINT ( 'NONE', #43 ) ;
#100 = APPROVAL_DATE_TIME ( #121, #34 ) ;
#101 = ORIENTED_EDGE ( 'NONE', *, *, #182, .F. ) ;
#102 = SECURITY_CLASSIFICATION_LEVEL ( 'unclassified' ) ;
#103 = CIRCLE ( 'NONE', #169, 3.999999999999998224 ) ;
#104 = LOCAL_TIME ( 10, 45, 51.00000000000000000, #226 ) ;
#105 = EDGE_LOOP ( 'NONE', ( #212 ) ) ;
#106 = FACE_OUTER_BOUND ( 'NONE', #230, .T. ) ;
#107 = DIRECTION ( 'NONE',  ( -4.365441207277734308E-31, -1.000000000000000000, -1.228762462150238276E-16 ) ) ;
#108 =( NAMED_UNIT ( * ) SI_UNIT ( $, .STERADIAN. ) SOLID_ANGLE_UNIT ( ) );
#109 = AXIS2_PLACEMENT_3D ( 'NONE', #136, #88, #77 ) ;
#110 = FACE_OUTER_BOUND ( 'NONE', #179, .T. ) ;
#111 = CARTESIAN_POINT ( 'NONE',  ( 5.586370142149013368E-14, -1.964028510409041694E-15, 16.00000000000000000 ) ) ;
#112 = FACE_OUTER_BOUND ( 'NONE', #229, .T. ) ;
#113 = AXIS2_PLACEMENT_3D ( 'NONE', #9, #134, #220 ) ;
#114 = FACE_OUTER_BOUND ( 'NONE', #105, .T. ) ;
#115 = LOCAL_TIME ( 10, 45, 51.00000000000000000, #75 ) ;
#116 = COORDINATED_UNIVERSAL_TIME_OFFSET ( 1, 0, .AHEAD. ) ;
#117 = DIRECTION ( 'NONE',  ( 0.0000000000000000000, 1.000000000000000000, 0.0000000000000000000 ) ) ;
#118 = PRODUCT_RELATED_PRODUCT_CATEGORY ( 'detail', '', ( #17 ) ) ;
#119 = ADVANCED_FACE ( 'NONE', ( #22 ), #202, .F. ) ;
#120 = CC_DESIGN_PERSON_AND_ORGANIZATION_ASSIGNMENT ( #135, #87, ( #17 ) ) ;
#121 = DATE_AND_TIME ( #161, #222 ) ;
#122 = PERSON_AND_ORGANIZATION_ROLE ( 'classification_officer' ) ;
#123 = CARTESIAN_POINT ( 'NONE',  ( 2.199633243471174140E-13, 3.199999999999992628, 63.00000000000000000 ) ) ;
#124 = EDGE_LOOP ( 'NONE', ( #82 ) ) ;
#125 = CC_DESIGN_PERSON_AND_ORGANIZATION_ASSIGNMENT ( #224, #57, ( #56 ) ) ;
#126 = CC_DESIGN_APPROVAL ( #34, ( #140 ) ) ;
#127 = DIRECTION ( 'NONE',  ( 3.491481338843133355E-15, -1.226656096638776648E-16, 1.000000000000000000 ) ) ;
#128 = EDGE_CURVE ( 'NONE', #166, #166, #214, .T. ) ;
#129 = DIRECTION ( 'NONE',  ( 0.0000000000000000000, 1.000000000000000000, 0.0000000000000000000 ) ) ;
#130 = ORIENTED_EDGE ( 'NONE', *, *, #182, .T. ) ;
#131 = DIRECTION ( 'NONE',  ( 3.491481338843133355E-15, -1.227517819005651059E-16, 1.000000000000000000 ) ) ;
#132 = ADVANCED_FACE ( 'NONE', ( #112, #55 ), #13, .T. ) ;
#133 = PRODUCT_DEFINITION_SHAPE ( 'NONE', 'NONE',  #66 ) ;
#134 = DIRECTION ( 'NONE',  ( -3.491481338843133355E-15, 1.224646799147353207E-16, -1.000000000000000000 ) ) ;
#135 = PERSON_AND_ORGANIZATION ( #172, #201 ) ;
#136 = CARTESIAN_POINT ( 'NONE',  ( -6.413731847436034514E-31, 0.0000000000000000000, -1.836965810494968570E-16 ) ) ;
#137 = DIRECTION ( 'NONE',  ( -4.275831445896958607E-31, -1.000000000000000000, -1.224646799147353207E-16 ) ) ;
#138 = CIRCLE ( 'NONE', #1, 3.550000000000001599 ) ;
#139 = CC_DESIGN_DATE_AND_TIME_ASSIGNMENT ( #218, #238, ( #66 ) ) ;
#140 = SECURITY_CLASSIFICATION ( '', '', #102 ) ;
#141 = EDGE_CURVE ( 'NONE', #12, #12, #160, .T. ) ;
#142 = DIRECTION ( 'NONE',  ( -3.491481338843133355E-15, 1.224646799147353207E-16, -1.000000000000000000 ) ) ;
#143 = CC_DESIGN_APPROVAL ( #227, ( #56 ) ) ;
#144 = ORIENTED_EDGE ( 'NONE', *, *, #45, .T. ) ;
#145 = ORIENTED_EDGE ( 'NONE', *, *, #232, .T. ) ;
#146 = ORIENTED_EDGE ( 'NONE', *, *, #11, .F. ) ;
#147 = CARTESIAN_POINT ( 'NONE',  ( 5.586370142149013368E-14, 2.999519565323708647E-32, 16.00000000000000000 ) ) ;
#148 = DIRECTION ( 'NONE',  ( -3.491481338843133355E-15, 1.224646799147353207E-16, -1.000000000000000000 ) ) ;
#149 = CC_DESIGN_APPROVAL ( #91, ( #66 ) ) ;
#150 = DATE_AND_TIME ( #237, #208 ) ;
#151 = DIRECTION ( 'NONE',  ( 4.275831445896958607E-31, 1.000000000000000000, 1.224646799147353207E-16 ) ) ;
#152 = AXIS2_PLACEMENT_3D ( 'NONE', #217, #167, #36 ) ;
#153 = APPROVAL_STATUS ( 'not_yet_approved' ) ;
#154 = FACE_OUTER_BOUND ( 'NONE', #233, .T. ) ;
#155 = AXIS2_PLACEMENT_3D ( 'NONE', #49, #16, #97 ) ;
#156 = ADVANCED_BREP_SHAPE_REPRESENTATION ( '57186', ( #79, #163, #189 ), #24 ) ;
#157 = ADVANCED_FACE ( 'NONE', ( #154, #170 ), #62, .T. ) ;
#158 = COORDINATED_UNIVERSAL_TIME_OFFSET ( 1, 0, .AHEAD. ) ;
#159 = ORIENTED_EDGE ( 'NONE', *, *, #11, .T. ) ;
#160 = CIRCLE ( 'NONE', #196, 3.200000000000000622 ) ;
#161 = CALENDAR_DATE ( 2021, 1, 11 ) ;
#162 = EDGE_LOOP ( 'NONE', ( #200 ) ) ;
#163 = MANIFOLD_SOLID_BREP ( 'Corps-Déplacer/Copier1[2]', #23 ) ;
#164 = CARTESIAN_POINT ( 'NONE',  ( 6.279189491884146894E-14, -1.978301491901008397E-15, 17.98431348329844326 ) ) ;
#165 = AXIS2_PLACEMENT_3D ( 'NONE', #67, #7, #83 ) ;
#166 = VERTEX_POINT ( 'NONE', #69 ) ;
#167 = DIRECTION ( 'NONE',  ( 3.491481338843133355E-15, -1.226656096638776648E-16, 1.000000000000000000 ) ) ;
#168 = APPLICATION_PROTOCOL_DEFINITION ( 'international standard', 'config_control_design', 1994, #236 ) ;
#169 = AXIS2_PLACEMENT_3D ( 'NONE', #164, #231, #129 ) ;
#170 = FACE_BOUND ( 'NONE', #162, .T. ) ;
#171 = MECHANICAL_CONTEXT ( 'NONE', #61, 'mechanical' ) ;
#172 = PERSON ( 'UNSPECIFIED', 'UNSPECIFIED', 'UNSPECIFIED', ('UNSPECIFIED'), ('UNSPECIFIED'), ('UNSPECIFIED') ) ;
#173 = CARTESIAN_POINT ( 'NONE',  ( 2.171701392760429073E-13, -7.617303090696536944E-15, 62.20000000000000284 ) ) ;
#174 = PERSON_AND_ORGANIZATION ( #172, #201 ) ;
#175 = AXIS2_PLACEMENT_3D ( 'NONE', #235, #31, #137 ) ;
#176 = ADVANCED_FACE ( 'NONE', ( #188 ), #204, .F. ) ;
#177 = LOCAL_TIME ( 10, 45, 51.00000000000000000, #116 ) ;
#178 = ORIENTED_EDGE ( 'NONE', *, *, #128, .T. ) ;
#179 = EDGE_LOOP ( 'NONE', ( #130 ) ) ;
#180 = AXIS2_PLACEMENT_3D ( 'NONE', #86, #203, #151 ) ;
#181 = APPROVAL_PERSON_ORGANIZATION ( #174, #91, #18 ) ;
#182 = EDGE_CURVE ( 'NONE', #25, #25, #94, .T. ) ;
#183 = EDGE_LOOP ( 'NONE', ( #145 ) ) ;
#184 = FACE_OUTER_BOUND ( 'NONE', #64, .T. ) ;
#185 = VERTEX_POINT ( 'NONE', #74 ) ;
#186 = DIRECTION ( 'NONE',  ( -3.491481338843133355E-15, 1.224646799147353207E-16, -1.000000000000000000 ) ) ;
#187 = DIRECTION ( 'NONE',  ( -4.275831445896958607E-31, -1.000000000000000000, -1.224646799147353207E-16 ) ) ;
#188 = FACE_OUTER_BOUND ( 'NONE', #26, .T. ) ;
#189 = AXIS2_PLACEMENT_3D ( 'NONE', #15, #76, #32 ) ;
#190 = PLANE ( 'NONE',  #155 ) ;
#191 = PERSON_AND_ORGANIZATION_ROLE ( 'creator' ) ;
#192 = DATE_AND_TIME ( #52, #177 ) ;
#193 = UNCERTAINTY_MEASURE_WITH_UNIT (LENGTH_MEASURE( 1.000000000000000082E-05 ), #197, 'distance_accuracy_value', 'NONE');
#194 = AXIS2_PLACEMENT_3D ( 'NONE', #234, #35, #206 ) ;
#195 = CC_DESIGN_PERSON_AND_ORGANIZATION_ASSIGNMENT ( #37, #191, ( #66 ) ) ;
#196 = AXIS2_PLACEMENT_3D ( 'NONE', #243, #186, #239 ) ;
#197 =( LENGTH_UNIT ( ) NAMED_UNIT ( * ) SI_UNIT ( .MILLI., .METRE. ) );
#198 = EDGE_LOOP ( 'NONE', ( #3 ) ) ;
#199 = FACE_OUTER_BOUND ( 'NONE', #63, .T. ) ;
#200 = ORIENTED_EDGE ( 'NONE', *, *, #141, .T. ) ;
#201 = ORGANIZATION ( 'UNSPECIFIED', 'UNSPECIFIED', '' ) ;
#202 = PLANE ( 'NONE',  #20 ) ;
#203 = DIRECTION ( 'NONE',  ( -3.491481338843133355E-15, 1.224646799147353207E-16, -1.000000000000000000 ) ) ;
#204 = PLANE ( 'NONE',  #175 ) ;
#205 = APPLICATION_PROTOCOL_DEFINITION ( 'international standard', 'config_control_design', 1994, #61 ) ;
#206 = DIRECTION ( 'NONE',  ( 0.0000000000000000000, -1.000000000000000000, 0.0000000000000000000 ) ) ;
#207 = PERSON_AND_ORGANIZATION ( #172, #201 ) ;
#208 = LOCAL_TIME ( 10, 45, 51.00000000000000000, #54 ) ;
#209 = CALENDAR_DATE ( 2021, 1, 11 ) ;
#210 = CARTESIAN_POINT ( 'NONE',  ( 5.586370142149013368E-14, -3.750000000000000888, 16.00000000000000000 ) ) ;
#211 = AXIS2_PLACEMENT_3D ( 'NONE', #173, #142, #53 ) ;
#212 = ORIENTED_EDGE ( 'NONE', *, *, #141, .F. ) ;
#213 = ORIENTED_EDGE ( 'NONE', *, *, #128, .F. ) ;
#214 = CIRCLE ( 'NONE', #211, 4.000000000000000888 ) ;
#215 = CIRCLE ( 'NONE', #30, 3.749999999999998668 ) ;
#216 = DIRECTION ( 'NONE',  ( 3.491481338843133355E-15, -1.226656096638776648E-16, 1.000000000000000000 ) ) ;
#217 = CARTESIAN_POINT ( 'NONE',  ( 6.982962677686251919E-16, -2.453312193277550707E-17, 0.1999999999999995670 ) ) ;
#218 = DATE_AND_TIME ( #72, #115 ) ;
#219 = EDGE_CURVE ( 'NONE', #99, #99, #138, .T. ) ;
#220 = DIRECTION ( 'NONE',  ( 4.275831445896958607E-31, 1.000000000000000000, 1.224646799147353207E-16 ) ) ;
#221 = FACE_OUTER_BOUND ( 'NONE', #5, .T. ) ;
#222 = LOCAL_TIME ( 10, 45, 51.00000000000000000, #158 ) ;
#223 = ADVANCED_FACE ( 'NONE', ( #110 ), #190, .T. ) ;
#224 = PERSON_AND_ORGANIZATION ( #172, #201 ) ;
#225 = CARTESIAN_POINT ( 'NONE',  ( 2.199633243471174140E-13, -7.715274834628325378E-15, 63.00000000000000000 ) ) ;
#226 = COORDINATED_UNIVERSAL_TIME_OFFSET ( 1, 0, .AHEAD. ) ;
#227 = APPROVAL ( #19, 'UNSPECIFIED' ) ;
#228 = ORIENTED_EDGE ( 'NONE', *, *, #219, .F. ) ;
#229 = EDGE_LOOP ( 'NONE', ( #101 ) ) ;
#230 = EDGE_LOOP ( 'NONE', ( #144 ) ) ;
#231 = DIRECTION ( 'NONE',  ( -3.491481338843133355E-15, 1.227517819005651059E-16, -1.000000000000000000 ) ) ;
#232 = EDGE_CURVE ( 'NONE', #6, #6, #215, .T. ) ;
#233 = EDGE_LOOP ( 'NONE', ( #213 ) ) ;
#234 = CARTESIAN_POINT ( 'NONE',  ( 5.586370142149013368E-14, -1.964028510409041694E-15, 16.00000000000000000 ) ) ;
#235 = CARTESIAN_POINT ( 'NONE',  ( -6.413786353522005134E-31, 2.249653418127174030E-32, -1.836981421658449264E-16 ) ) ;
#236 = APPLICATION_CONTEXT ( 'configuration controlled 3d designs of mechanical parts and assemblies' ) ;
#237 = CALENDAR_DATE ( 2021, 1, 11 ) ;
#238 = DATE_TIME_ROLE ( 'creation_date' ) ;
#239 = DIRECTION ( 'NONE',  ( 0.0000000000000000000, 1.000000000000000000, 0.0000000000000000000 ) ) ;
#240 = APPROVAL_DATE_TIME ( #150, #91 ) ;
#241 = APPROVAL_STATUS ( 'not_yet_approved' ) ;
#242 = CC_DESIGN_PERSON_AND_ORGANIZATION_ASSIGNMENT ( #58, #122, ( #140 ) ) ;
#243 = CARTESIAN_POINT ( 'NONE',  ( 2.199633243471174140E-13, -7.715274834628325378E-15, 63.00000000000000000 ) ) ;
ENDSEC;
END-ISO-10303-21;
