ISO-10303-21;
HEADER;
FILE_DESCRIPTION (( 'STEP AP203' ),
    '1' );
FILE_NAME ('57185.step',
    '2021-11-01T09:45:50',
    ( '' ),
    ( '' ),
    'SwSTEP 2.0',
    'SolidWorks 2019',
    '' );
FILE_SCHEMA (( 'CONFIG_CONTROL_DESIGN' ));
ENDSEC;

DATA;
#1 = DATE_AND_TIME ( #210, #21 ) ;
#2 = PERSON_AND_ORGANIZATION_ROLE ( 'design_supplier' ) ;
#3 = DATE_AND_TIME ( #28, #171 ) ;
#4 = ORIENTED_EDGE ( 'NONE', *, *, #52, .F. ) ;
#5 = CC_DESIGN_PERSON_AND_ORGANIZATION_ASSIGNMENT ( #231, #139, ( #206 ) ) ;
#6 = PERSON_AND_ORGANIZATION ( #111, #213 ) ;
#7 = ORIENTED_EDGE ( 'NONE', *, *, #30, .T. ) ;
#8 = AXIS2_PLACEMENT_3D ( 'NONE', #107, #143, #90 ) ;
#9 = EDGE_LOOP ( 'NONE', ( #142 ) ) ;
#10 = CARTESIAN_POINT ( 'NONE',  ( -1.413339467295508710E-30, 2.305574682352864863E-32, -4.047965118907965230E-16 ) ) ;
#11 = DIRECTION ( 'NONE',  ( 0.0000000000000000000, 1.000000000000000000, 0.0000000000000000000 ) ) ;
#12 = AXIS2_PLACEMENT_3D ( 'NONE', #74, #239, #163 ) ;
#13 = FACE_OUTER_BOUND ( 'NONE', #45, .T. ) ;
#14 = APPROVAL ( #180, 'UNSPECIFIED' ) ;
#15 = DIRECTION ( 'NONE',  ( -3.491481338843133355E-15, 1.224646799147353207E-16, -1.000000000000000000 ) ) ;
#16 = PLANE ( 'NONE',  #71 ) ;
#17 = CC_DESIGN_APPROVAL ( #230, ( #23 ) ) ;
#18 = AXIS2_PLACEMENT_3D ( 'NONE', #10, #198, #183 ) ;
#19 = MANIFOLD_SOLID_BREP ( 'Corps-Déplacer/Copier1[1]', #137 ) ;
#20 = VERTEX_POINT ( 'NONE', #209 ) ;
#21 = LOCAL_TIME ( 10, 45, 50.00000000000000000, #241 ) ;
#22 = CARTESIAN_POINT ( 'NONE',  ( 4.538925740496072731E-14, -1.595773164707346130E-15, 12.99999999999999822 ) ) ;
#23 = PRODUCT_DEFINITION ( 'UNKNOWN', '', #27, #59 ) ;
#24 = DATE_TIME_ROLE ( 'creation_date' ) ;
#25 = APPROVAL_DATE_TIME ( #3, #14 ) ;
#26 = EDGE_LOOP ( 'NONE', ( #179 ) ) ;
#27 = PRODUCT_DEFINITION_FORMATION_WITH_SPECIFIED_SOURCE ( 'ANY', '', #122, .NOT_KNOWN. ) ;
#28 = CALENDAR_DATE ( 2021, 1, 11 ) ;
#29 = EDGE_LOOP ( 'NONE', ( #212 ) ) ;
#30 = EDGE_CURVE ( 'NONE', #153, #153, #201, .T. ) ;
#31 = DIRECTION ( 'NONE',  ( 3.491481338843133355E-15, -1.226656096638776648E-16, 1.000000000000000000 ) ) ;
#32 = CARTESIAN_POINT ( 'NONE',  ( 6.982962677686252905E-16, -2.453312193277551015E-17, 0.1999999999999995948 ) ) ;
#33 = CC_DESIGN_APPROVAL ( #69, ( #27 ) ) ;
#34 = CARTESIAN_POINT ( 'NONE',  ( 2.171701392760429073E-13, -7.617303090696536944E-15, 62.20000000000000284 ) ) ;
#35 = EDGE_CURVE ( 'NONE', #132, #132, #131, .T. ) ;
#36 = FACE_OUTER_BOUND ( 'NONE', #214, .T. ) ;
#37 = DIRECTION ( 'NONE',  ( 0.0000000000000000000, 1.000000000000000000, 0.0000000000000000000 ) ) ;
#38 = CARTESIAN_POINT ( 'NONE',  ( -2.826678934591017419E-30, -3.300000000000001599, -8.095930237815930460E-16 ) ) ;
#39 = PERSON_AND_ORGANIZATION ( #111, #213 ) ;
#40 = CARTESIAN_POINT ( 'NONE',  ( 4.538925740496072731E-14, -3.500000000000001332, 12.99999999999999822 ) ) ;
#41 = VERTEX_POINT ( 'NONE', #155 ) ;
#42 = AXIS2_PLACEMENT_3D ( 'NONE', #121, #76, #186 ) ;
#43 = CARTESIAN_POINT ( 'NONE',  ( 0.0000000000000000000, 0.0000000000000000000, 0.0000000000000000000 ) ) ;
#44 = PERSON_AND_ORGANIZATION_ROLE ( 'creator' ) ;
#45 = EDGE_LOOP ( 'NONE', ( #135 ) ) ;
#46 = ORIENTED_EDGE ( 'NONE', *, *, #238, .T. ) ;
#47 = ORIENTED_EDGE ( 'NONE', *, *, #73, .F. ) ;
#48 = COORDINATED_UNIVERSAL_TIME_OFFSET ( 1, 0, .AHEAD. ) ;
#49 = LOCAL_TIME ( 10, 45, 50.00000000000000000, #79 ) ;
#50 = PLANE ( 'NONE',  #97 ) ;
#51 = FACE_BOUND ( 'NONE', #114, .T. ) ;
#52 = EDGE_CURVE ( 'NONE', #20, #20, #181, .T. ) ;
#53 = FACE_OUTER_BOUND ( 'NONE', #178, .T. ) ;
#54 = AXIS2_PLACEMENT_3D ( 'NONE', #43, #207, #225 ) ;
#55 = AXIS2_PLACEMENT_3D ( 'NONE', #150, #120, #219 ) ;
#56 = DIRECTION ( 'NONE',  ( 3.491481338843133355E-15, -1.224646799147353207E-16, 1.000000000000000000 ) ) ;
#57 = MECHANICAL_CONTEXT ( 'NONE', #240, 'mechanical' ) ;
#58 = CC_DESIGN_PERSON_AND_ORGANIZATION_ASSIGNMENT ( #211, #44, ( #27 ) ) ;
#59 = DESIGN_CONTEXT ( 'detailed design', #146, 'design' ) ;
#60 = VERTEX_POINT ( 'NONE', #40 ) ;
#61 = LOCAL_TIME ( 10, 45, 50.00000000000000000, #233 ) ;
#62 = TOROIDAL_SURFACE ( 'NONE', #55, 11.49999999999999822, 8.000000000000000000 ) ;
#63 = DIRECTION ( 'NONE',  ( -3.491481338843133355E-15, 1.224646799147353207E-16, -1.000000000000000000 ) ) ;
#64 = ADVANCED_FACE ( 'NONE', ( #165, #126 ), #62, .F. ) ;
#65 = CARTESIAN_POINT ( 'NONE',  ( 2.171701392760429073E-13, 3.999999999999993339, 62.20000000000000284 ) ) ;
#66 = APPROVAL_ROLE ( '' ) ;
#67 = APPROVAL_ROLE ( '' ) ;
#68 = ORIENTED_EDGE ( 'NONE', *, *, #128, .T. ) ;
#69 = APPROVAL ( #102, 'UNSPECIFIED' ) ;
#70 = CARTESIAN_POINT ( 'NONE',  ( 2.199633243471174140E-13, 2.399615652258960951E-32, 63.00000000000000000 ) ) ;
#71 = AXIS2_PLACEMENT_3D ( 'NONE', #70, #63, #192 ) ;
#72 = CARTESIAN_POINT ( 'NONE',  ( -6.413731847436034514E-31, 0.0000000000000000000, -1.836965810494968570E-16 ) ) ;
#73 = EDGE_CURVE ( 'NONE', #81, #81, #129, .T. ) ;
#74 = CARTESIAN_POINT ( 'NONE',  ( 6.982962677686252905E-16, -2.453312193277551015E-17, 0.1999999999999995948 ) ) ;
#75 = DIRECTION ( 'NONE',  ( -4.275831445896958607E-31, -1.000000000000000000, -1.224646799147353207E-16 ) ) ;
#76 = DIRECTION ( 'NONE',  ( 3.491481338843133355E-15, -1.227517819005651059E-16, 1.000000000000000000 ) ) ;
#77 = CARTESIAN_POINT ( 'NONE',  ( 5.510913009090914186E-14, 3.999999999999996447, 15.78388218141500765 ) ) ;
#78 = ADVANCED_FACE ( 'NONE', ( #51, #53 ), #197, .T. ) ;
#79 = COORDINATED_UNIVERSAL_TIME_OFFSET ( 1, 0, .AHEAD. ) ;
#80 = DIRECTION ( 'NONE',  ( 3.491481338843133355E-15, -1.227517819005651059E-16, 1.000000000000000000 ) ) ;
#81 = VERTEX_POINT ( 'NONE', #38 ) ;
#82 = CALENDAR_DATE ( 2021, 1, 11 ) ;
#83 = CIRCLE ( 'NONE', #119, 3.200000000000000622 ) ;
#84 = CALENDAR_DATE ( 2021, 1, 11 ) ;
#85 = EDGE_LOOP ( 'NONE', ( #46 ) ) ;
#86 = CONICAL_SURFACE ( 'NONE', #144, 3.200000000000000622, 0.7853981633974516097 ) ;
#87 = EDGE_LOOP ( 'NONE', ( #7 ) ) ;
#88 = CYLINDRICAL_SURFACE ( 'NONE', #222, 3.999999999999998224 ) ;
#89 = FACE_OUTER_BOUND ( 'NONE', #117, .T. ) ;
#90 = DIRECTION ( 'NONE',  ( 0.0000000000000000000, 1.000000000000000000, 0.0000000000000000000 ) ) ;
#91 = DIRECTION ( 'NONE',  ( -4.285855558155653280E-31, -1.000000000000000000, -1.227517819005651059E-16 ) ) ;
#92 = DIRECTION ( 'NONE',  ( 0.0000000000000000000, 1.000000000000000000, 0.0000000000000000000 ) ) ;
#93 = CARTESIAN_POINT ( 'NONE',  ( 2.199633243471174140E-13, 3.199999999999992628, 63.00000000000000000 ) ) ;
#94 = PERSON_AND_ORGANIZATION_ROLE ( 'design_owner' ) ;
#95 = ADVANCED_FACE ( 'NONE', ( #147, #184 ), #88, .T. ) ;
#96 = ORIENTED_EDGE ( 'NONE', *, *, #35, .T. ) ;
#97 = AXIS2_PLACEMENT_3D ( 'NONE', #166, #220, #200 ) ;
#98 = CC_DESIGN_APPROVAL ( #14, ( #206 ) ) ;
#99 = DATE_AND_TIME ( #84, #61 ) ;
#100 = EDGE_LOOP ( 'NONE', ( #176 ) ) ;
#101 = CC_DESIGN_PERSON_AND_ORGANIZATION_ASSIGNMENT ( #112, #170, ( #23 ) ) ;
#102 = APPROVAL_STATUS ( 'not_yet_approved' ) ;
#103 = MANIFOLD_SOLID_BREP ( 'Corps-Déplacer/Copier1[2]', #154 ) ;
#104 = LOCAL_TIME ( 10, 45, 50.00000000000000000, #113 ) ;
#105 = CARTESIAN_POINT ( 'NONE',  ( 0.0000000000000000000, 0.0000000000000000000, 0.0000000000000000000 ) ) ;
#106 = DIRECTION ( 'NONE',  ( -3.491481338843133355E-15, 1.224646799147353207E-16, -1.000000000000000000 ) ) ;
#107 = CARTESIAN_POINT ( 'NONE',  ( 5.510913009090914186E-14, -2.076449974346732108E-15, 15.78388218141500765 ) ) ;
#108 = FACE_OUTER_BOUND ( 'NONE', #26, .T. ) ;
#109 = DIRECTION ( 'NONE',  ( 4.275831445896958607E-31, 1.000000000000000000, 1.224646799147353207E-16 ) ) ;
#110 = DIRECTION ( 'NONE',  ( 0.0000000000000000000, -1.000000000000000000, 0.0000000000000000000 ) ) ;
#111 = PERSON ( 'UNSPECIFIED', 'UNSPECIFIED', 'UNSPECIFIED', ('UNSPECIFIED'), ('UNSPECIFIED'), ('UNSPECIFIED') ) ;
#112 = PERSON_AND_ORGANIZATION ( #111, #213 ) ;
#113 = COORDINATED_UNIVERSAL_TIME_OFFSET ( 1, 0, .AHEAD. ) ;
#114 = EDGE_LOOP ( 'NONE', ( #195 ) ) ;
#115 = CC_DESIGN_DATE_AND_TIME_ASSIGNMENT ( #127, #24, ( #23 ) ) ;
#116 = SHAPE_DEFINITION_REPRESENTATION ( #242, #125 ) ;
#117 = EDGE_LOOP ( 'NONE', ( #47 ) ) ;
#118 = CC_DESIGN_SECURITY_CLASSIFICATION ( #206, ( #27 ) ) ;
#119 = AXIS2_PLACEMENT_3D ( 'NONE', #218, #15, #92 ) ;
#120 = DIRECTION ( 'NONE',  ( 3.491481338843133355E-15, -1.227517819005651059E-16, 1.000000000000000000 ) ) ;
#121 = CARTESIAN_POINT ( 'NONE',  ( 4.538925740496072731E-14, -1.595773164707346130E-15, 12.99999999999999822 ) ) ;
#122 = PRODUCT ( '57185', '57185', '', ( #57 ) ) ;
#123 = FACE_OUTER_BOUND ( 'NONE', #29, .T. ) ;
#124 = FACE_BOUND ( 'NONE', #140, .T. ) ;
#125 = ADVANCED_BREP_SHAPE_REPRESENTATION ( '57185', ( #19, #103, #54 ), #175 ) ;
#126 = FACE_OUTER_BOUND ( 'NONE', #87, .T. ) ;
#127 = DATE_AND_TIME ( #193, #49 ) ;
#128 = EDGE_CURVE ( 'NONE', #151, #151, #83, .T. ) ;
#129 = CIRCLE ( 'NONE', #18, 3.300000000000001599 ) ;
#130 = APPROVAL_STATUS ( 'not_yet_approved' ) ;
#131 = CIRCLE ( 'NONE', #229, 4.000000000000000888 ) ;
#132 = VERTEX_POINT ( 'NONE', #65 ) ;
#133 = EDGE_CURVE ( 'NONE', #41, #41, #168, .T. ) ;
#134 = ORIENTED_EDGE ( 'NONE', *, *, #128, .F. ) ;
#135 = ORIENTED_EDGE ( 'NONE', *, *, #133, .F. ) ;
#136 = ADVANCED_FACE ( 'NONE', ( #13, #123 ), #203, .T. ) ;
#137 = CLOSED_SHELL ( 'NONE', ( #95, #148, #227, #64, #208 ) ) ;
#138 = APPROVAL_PERSON_ORGANIZATION ( #172, #230, #66 ) ;
#139 = PERSON_AND_ORGANIZATION_ROLE ( 'classification_officer' ) ;
#140 = EDGE_LOOP ( 'NONE', ( #68 ) ) ;
#141 = APPROVAL_DATE_TIME ( #194, #69 ) ;
#142 = ORIENTED_EDGE ( 'NONE', *, *, #30, .F. ) ;
#143 = DIRECTION ( 'NONE',  ( -3.491481338843133355E-15, 1.227517819005651059E-16, -1.000000000000000000 ) ) ;
#144 = AXIS2_PLACEMENT_3D ( 'NONE', #145, #199, #11 ) ;
#145 = CARTESIAN_POINT ( 'NONE',  ( 2.199633243471174140E-13, -7.715274834628325378E-15, 63.00000000000000000 ) ) ;
#146 = APPLICATION_CONTEXT ( 'configuration controlled 3d designs of mechanical parts and assemblies' ) ;
#147 = FACE_OUTER_BOUND ( 'NONE', #160, .T. ) ;
#148 = ADVANCED_FACE ( 'NONE', ( #167, #124 ), #86, .T. ) ;
#149 = CARTESIAN_POINT ( 'NONE',  ( 4.538925740496073362E-14, 2.999519565323708647E-32, 13.00000000000000000 ) ) ;
#150 = CARTESIAN_POINT ( 'NONE',  ( 4.538925740496072731E-14, -1.734723475976807094E-15, 12.99999999999999822 ) ) ;
#151 = VERTEX_POINT ( 'NONE', #93 ) ;
#152 = UNCERTAINTY_MEASURE_WITH_UNIT (LENGTH_MEASURE( 1.000000000000000082E-05 ), #191, 'distance_accuracy_value', 'NONE');
#153 = VERTEX_POINT ( 'NONE', #77 ) ;
#154 = CLOSED_SHELL ( 'NONE', ( #136, #189, #78, #185 ) ) ;
#155 = CARTESIAN_POINT ( 'NONE',  ( 4.538925740496072731E-14, -3.500000000000001332, 12.99999999999999822 ) ) ;
#156 =( NAMED_UNIT ( * ) PLANE_ANGLE_UNIT ( ) SI_UNIT ( $, .RADIAN. ) );
#157 = AXIS2_PLACEMENT_3D ( 'NONE', #234, #56, #187 ) ;
#158 = PERSON_AND_ORGANIZATION ( #111, #213 ) ;
#159 = CC_DESIGN_PERSON_AND_ORGANIZATION_ASSIGNMENT ( #39, #94, ( #122 ) ) ;
#160 = EDGE_LOOP ( 'NONE', ( #96 ) ) ;
#161 = APPROVAL_ROLE ( '' ) ;
#162 = ORIENTED_EDGE ( 'NONE', *, *, #238, .F. ) ;
#163 = DIRECTION ( 'NONE',  ( -4.402125587170824932E-31, -1.000000000000000000, -1.239088197126290817E-16 ) ) ;
#164 = AXIS2_PLACEMENT_3D ( 'NONE', #32, #31, #236 ) ;
#165 = FACE_OUTER_BOUND ( 'NONE', #85, .T. ) ;
#166 = CARTESIAN_POINT ( 'NONE',  ( -6.413786353522005134E-31, 2.249653418127174030E-32, -1.836981421658449264E-16 ) ) ;
#167 = FACE_OUTER_BOUND ( 'NONE', #100, .T. ) ;
#168 = CIRCLE ( 'NONE', #42, 3.499999999999999556 ) ;
#169 = PERSON_AND_ORGANIZATION ( #111, #213 ) ;
#170 = PERSON_AND_ORGANIZATION_ROLE ( 'creator' ) ;
#171 = LOCAL_TIME ( 10, 45, 50.00000000000000000, #48 ) ;
#172 = PERSON_AND_ORGANIZATION ( #111, #213 ) ;
#173 = APPLICATION_PROTOCOL_DEFINITION ( 'international standard', 'config_control_design', 1994, #146 ) ;
#174 = AXIS2_PLACEMENT_3D ( 'NONE', #149, #202, #75 ) ;
#175 =( GEOMETRIC_REPRESENTATION_CONTEXT ( 3 ) GLOBAL_UNCERTAINTY_ASSIGNED_CONTEXT ( ( #152 ) ) GLOBAL_UNIT_ASSIGNED_CONTEXT ( ( #191, #156, #226 ) ) REPRESENTATION_CONTEXT ( 'NONE', 'WORKASPACE' ) );
#176 = ORIENTED_EDGE ( 'NONE', *, *, #35, .F. ) ;
#177 = SECURITY_CLASSIFICATION_LEVEL ( 'unclassified' ) ;
#178 = EDGE_LOOP ( 'NONE', ( #4 ) ) ;
#179 = ORIENTED_EDGE ( 'NONE', *, *, #133, .T. ) ;
#180 = APPROVAL_STATUS ( 'not_yet_approved' ) ;
#181 = CIRCLE ( 'NONE', #164, 3.500000000000000000 ) ;
#182 = CC_DESIGN_DATE_AND_TIME_ASSIGNMENT ( #99, #215, ( #206 ) ) ;
#183 = DIRECTION ( 'NONE',  ( -4.282846870592448247E-31, -1.000000000000000000, -1.226656096638776648E-16 ) ) ;
#184 = FACE_OUTER_BOUND ( 'NONE', #9, .T. ) ;
#185 = ADVANCED_FACE ( 'NONE', ( #89 ), #50, .F. ) ;
#186 = DIRECTION ( 'NONE',  ( 0.0000000000000000000, -1.000000000000000000, 0.0000000000000000000 ) ) ;
#187 = DIRECTION ( 'NONE',  ( -4.275831445896958607E-31, -1.000000000000000000, -1.224646799147353207E-16 ) ) ;
#188 = FACE_OUTER_BOUND ( 'NONE', #196, .T. ) ;
#189 = ADVANCED_FACE ( 'NONE', ( #108 ), #237, .T. ) ;
#190 = AXIS2_PLACEMENT_3D ( 'NONE', #22, #80, #110 ) ;
#191 =( LENGTH_UNIT ( ) NAMED_UNIT ( * ) SI_UNIT ( .MILLI., .METRE. ) );
#192 = DIRECTION ( 'NONE',  ( 4.275831445896958607E-31, 1.000000000000000000, 1.224646799147353207E-16 ) ) ;
#193 = CALENDAR_DATE ( 2021, 1, 11 ) ;
#194 = DATE_AND_TIME ( #82, #104 ) ;
#195 = ORIENTED_EDGE ( 'NONE', *, *, #73, .T. ) ;
#196 = EDGE_LOOP ( 'NONE', ( #134 ) ) ;
#197 = CONICAL_SURFACE ( 'NONE', #12, 3.500000000000000000, 0.7853981633974441712 ) ;
#198 = DIRECTION ( 'NONE',  ( 3.491481338843133355E-15, -1.226656096638776648E-16, 1.000000000000000000 ) ) ;
#199 = DIRECTION ( 'NONE',  ( -3.491481338843133355E-15, 1.224646799147353207E-16, -1.000000000000000000 ) ) ;
#200 = DIRECTION ( 'NONE',  ( -4.275831445896958607E-31, -1.000000000000000000, -1.224646799147353207E-16 ) ) ;
#201 = CIRCLE ( 'NONE', #8, 3.999999999999998224 ) ;
#202 = DIRECTION ( 'NONE',  ( 3.491481338843133355E-15, -1.224646799147353207E-16, 1.000000000000000000 ) ) ;
#203 = CYLINDRICAL_SURFACE ( 'NONE', #217, 3.499999999999998668 ) ;
#204 = APPROVAL_DATE_TIME ( #1, #230 ) ;
#205 = CIRCLE ( 'NONE', #190, 3.499999999999999556 ) ;
#206 = SECURITY_CLASSIFICATION ( '', '', #177 ) ;
#207 = DIRECTION ( 'NONE',  ( 0.0000000000000000000, 0.0000000000000000000, 1.000000000000000000 ) ) ;
#208 = ADVANCED_FACE ( 'NONE', ( #36 ), #223, .F. ) ;
#209 = CARTESIAN_POINT ( 'NONE',  ( 6.982962677686238114E-16, -3.500000000000000000, 0.1999999999999991784 ) ) ;
#210 = CALENDAR_DATE ( 2021, 1, 11 ) ;
#211 = PERSON_AND_ORGANIZATION ( #111, #213 ) ;
#212 = ORIENTED_EDGE ( 'NONE', *, *, #52, .T. ) ;
#213 = ORGANIZATION ( 'UNSPECIFIED', 'UNSPECIFIED', '' ) ;
#214 = EDGE_LOOP ( 'NONE', ( #162 ) ) ;
#215 = DATE_TIME_ROLE ( 'classification_date' ) ;
#216 = PRODUCT_RELATED_PRODUCT_CATEGORY ( 'detail', '', ( #122 ) ) ;
#217 = AXIS2_PLACEMENT_3D ( 'NONE', #72, #221, #91 ) ;
#218 = CARTESIAN_POINT ( 'NONE',  ( 2.199633243471174140E-13, -7.715274834628325378E-15, 63.00000000000000000 ) ) ;
#219 = DIRECTION ( 'NONE',  ( -4.340327956931570986E-31, -1.000000000000000000, -1.227517819005651059E-16 ) ) ;
#220 = DIRECTION ( 'NONE',  ( 3.491481338843133355E-15, -1.224646799147353207E-16, 1.000000000000000000 ) ) ;
#221 = DIRECTION ( 'NONE',  ( 3.491481338843133355E-15, -1.227517819005651059E-16, 1.000000000000000000 ) ) ;
#222 = AXIS2_PLACEMENT_3D ( 'NONE', #105, #235, #109 ) ;
#223 = PLANE ( 'NONE',  #157 ) ;
#224 = CC_DESIGN_PERSON_AND_ORGANIZATION_ASSIGNMENT ( #6, #2, ( #27 ) ) ;
#225 = DIRECTION ( 'NONE',  ( 1.000000000000000000, 0.0000000000000000000, 0.0000000000000000000 ) ) ;
#226 =( NAMED_UNIT ( * ) SI_UNIT ( $, .STERADIAN. ) SOLID_ANGLE_UNIT ( ) );
#227 = ADVANCED_FACE ( 'NONE', ( #188 ), #16, .F. ) ;
#228 = APPLICATION_PROTOCOL_DEFINITION ( 'international standard', 'config_control_design', 1994, #240 ) ;
#229 = AXIS2_PLACEMENT_3D ( 'NONE', #34, #106, #37 ) ;
#230 = APPROVAL ( #130, 'UNSPECIFIED' ) ;
#231 = PERSON_AND_ORGANIZATION ( #111, #213 ) ;
#232 = APPROVAL_PERSON_ORGANIZATION ( #158, #14, #161 ) ;
#233 = COORDINATED_UNIVERSAL_TIME_OFFSET ( 1, 0, .AHEAD. ) ;
#234 = CARTESIAN_POINT ( 'NONE',  ( 4.538925740496073362E-14, 2.999519565323708647E-32, 13.00000000000000000 ) ) ;
#235 = DIRECTION ( 'NONE',  ( -3.491481338843133355E-15, 1.224646799147353207E-16, -1.000000000000000000 ) ) ;
#236 = DIRECTION ( 'NONE',  ( -4.402125587170824932E-31, -1.000000000000000000, -1.239088197126290817E-16 ) ) ;
#237 = PLANE ( 'NONE',  #174 ) ;
#238 = EDGE_CURVE ( 'NONE', #60, #60, #205, .T. ) ;
#239 = DIRECTION ( 'NONE',  ( 3.491481338843133355E-15, -1.226656096638776648E-16, 1.000000000000000000 ) ) ;
#240 = APPLICATION_CONTEXT ( 'configuration controlled 3d designs of mechanical parts and assemblies' ) ;
#241 = COORDINATED_UNIVERSAL_TIME_OFFSET ( 1, 0, .AHEAD. ) ;
#242 = PRODUCT_DEFINITION_SHAPE ( 'NONE', 'NONE',  #23 ) ;
#243 = APPROVAL_PERSON_ORGANIZATION ( #169, #69, #67 ) ;
ENDSEC;
END-ISO-10303-21;
