ISO-10303-21;
HEADER;
FILE_DESCRIPTION (( 'STEP AP203' ),
    '1' );
FILE_NAME ('57183.step',
    '2021-11-01T09:45:49',
    ( '' ),
    ( '' ),
    'SwSTEP 2.0',
    'SolidWorks 2019',
    '' );
FILE_SCHEMA (( 'CONFIG_CONTROL_DESIGN' ));
ENDSEC;

DATA;
#1 = PRODUCT ( '57183', '57183', '', ( #179 ) ) ;
#2 = VERTEX_POINT ( 'NONE', #122 ) ;
#3 = FACE_OUTER_BOUND ( 'NONE', #188, .T. ) ;
#4 = FACE_OUTER_BOUND ( 'NONE', #151, .T. ) ;
#5 = APPROVAL_PERSON_ORGANIZATION ( #8, #124, #69 ) ;
#6 = DATE_AND_TIME ( #178, #25 ) ;
#7 = PERSON_AND_ORGANIZATION_ROLE ( 'design_supplier' ) ;
#8 = PERSON_AND_ORGANIZATION ( #194, #183 ) ;
#9 = DIRECTION ( 'NONE',  ( 0.0000000000000000000, 0.0000000000000000000, 1.000000000000000000 ) ) ;
#10 = CIRCLE ( 'NONE', #123, 2.999999999999996891 ) ;
#11 = EDGE_LOOP ( 'NONE', ( #134 ) ) ;
#12 = EDGE_CURVE ( 'NONE', #2, #2, #181, .T. ) ;
#13 = ORIENTED_EDGE ( 'NONE', *, *, #46, .F. ) ;
#14 = DIRECTION ( 'NONE',  ( -3.491481338843133355E-15, 1.224646799147353207E-16, -1.000000000000000000 ) ) ;
#15 = FACE_OUTER_BOUND ( 'NONE', #104, .T. ) ;
#16 = CARTESIAN_POINT ( 'NONE',  ( 1.990144363140586139E-13, -6.980486755139912911E-15, 57.00000000000000000 ) ) ;
#17 = FACE_OUTER_BOUND ( 'NONE', #88, .T. ) ;
#18 = PLANE ( 'NONE',  #53 ) ;
#19 = SECURITY_CLASSIFICATION_LEVEL ( 'unclassified' ) ;
#20 = AXIS2_PLACEMENT_3D ( 'NONE', #62, #106, #156 ) ;
#21 = APPROVAL_STATUS ( 'not_yet_approved' ) ;
#22 = APPROVAL_ROLE ( '' ) ;
#23 = AXIS2_PLACEMENT_3D ( 'NONE', #16, #171, #177 ) ;
#24 = CALENDAR_DATE ( 2021, 1, 11 ) ;
#25 = LOCAL_TIME ( 10, 45, 49.00000000000000000, #100 ) ;
#26 = EDGE_LOOP ( 'NONE', ( #170 ) ) ;
#27 = EDGE_CURVE ( 'NONE', #77, #77, #155, .T. ) ;
#28 = PLANE ( 'NONE',  #99 ) ;
#29 = VERTEX_POINT ( 'NONE', #91 ) ;
#30 = DESIGN_CONTEXT ( 'detailed design', #92, 'design' ) ;
#31 = PRODUCT_DEFINITION ( 'UNKNOWN', '', #152, #30 ) ;
#32 = FACE_OUTER_BOUND ( 'NONE', #135, .T. ) ;
#33 = LOCAL_TIME ( 10, 45, 49.00000000000000000, #101 ) ;
#34 = DIRECTION ( 'NONE',  ( -4.275831445896958607E-31, -1.000000000000000000, -1.224646799147353207E-16 ) ) ;
#35 = APPLICATION_PROTOCOL_DEFINITION ( 'international standard', 'config_control_design', 1994, #200 ) ;
#36 = APPROVAL ( #102, 'UNSPECIFIED' ) ;
#37 = ADVANCED_BREP_SHAPE_REPRESENTATION ( '57183', ( #43, #105, #127 ), #136 ) ;
#38 = DATE_TIME_ROLE ( 'creation_date' ) ;
#39 = LOCAL_TIME ( 10, 45, 49.00000000000000000, #54 ) ;
#40 = APPLICATION_PROTOCOL_DEFINITION ( 'international standard', 'config_control_design', 1994, #92 ) ;
#41 = CARTESIAN_POINT ( 'NONE',  ( 0.0000000000000000000, 0.0000000000000000000, 0.0000000000000000000 ) ) ;
#42 = PERSON_AND_ORGANIZATION_ROLE ( 'classification_officer' ) ;
#43 = MANIFOLD_SOLID_BREP ( 'Corps-Déplacer/Copier1[1]', #198 ) ;
#44 = CIRCLE ( 'NONE', #94, 2.999999999999996891 ) ;
#45 = DIRECTION ( 'NONE',  ( -3.491481338843133355E-15, 1.224646799147353207E-16, -1.000000000000000000 ) ) ;
#46 = EDGE_CURVE ( 'NONE', #191, #191, #44, .T. ) ;
#47 = UNCERTAINTY_MEASURE_WITH_UNIT (LENGTH_MEASURE( 1.000000000000000082E-05 ), #61, 'distance_accuracy_value', 'NONE');
#48 = CYLINDRICAL_SURFACE ( 'NONE', #20, 3.000000000000000000 ) ;
#49 = FACE_OUTER_BOUND ( 'NONE', #167, .T. ) ;
#50 = ADVANCED_FACE ( 'NONE', ( #49, #158 ), #160, .T. ) ;
#51 =( NAMED_UNIT ( * ) SI_UNIT ( $, .STERADIAN. ) SOLID_ANGLE_UNIT ( ) );
#52 = CARTESIAN_POINT ( 'NONE',  ( 0.0000000000000000000, 0.0000000000000000000, 0.0000000000000000000 ) ) ;
#53 = AXIS2_PLACEMENT_3D ( 'NONE', #111, #157, #175 ) ;
#54 = COORDINATED_UNIVERSAL_TIME_OFFSET ( 1, 0, .AHEAD. ) ;
#55 = DATE_TIME_ROLE ( 'classification_date' ) ;
#56 = CC_DESIGN_PERSON_AND_ORGANIZATION_ASSIGNMENT ( #128, #145, ( #1 ) ) ;
#57 = APPROVAL_DATE_TIME ( #81, #124 ) ;
#58 = DIRECTION ( 'NONE',  ( -3.491481338843133355E-15, 1.224646799147353207E-16, -1.000000000000000000 ) ) ;
#59 = DIRECTION ( 'NONE',  ( 0.0000000000000000000, 1.000000000000000000, 0.0000000000000000000 ) ) ;
#60 = DIRECTION ( 'NONE',  ( 0.0000000000000000000, 1.000000000000000000, 0.0000000000000000000 ) ) ;
#61 =( LENGTH_UNIT ( ) NAMED_UNIT ( * ) SI_UNIT ( .MILLI., .METRE. ) );
#62 = CARTESIAN_POINT ( 'NONE',  ( 0.0000000000000000000, 0.0000000000000000000, 0.0000000000000000000 ) ) ;
#63 = DIRECTION ( 'NONE',  ( -3.491481338843133355E-15, 1.224646799147353207E-16, -1.000000000000000000 ) ) ;
#64 = SECURITY_CLASSIFICATION ( '', '', #19 ) ;
#65 = AXIS2_PLACEMENT_3D ( 'NONE', #52, #96, #79 ) ;
#66 = APPROVAL_DATE_TIME ( #6, #143 ) ;
#67 = PERSON_AND_ORGANIZATION ( #194, #183 ) ;
#68 = EDGE_CURVE ( 'NONE', #174, #174, #10, .T. ) ;
#69 = APPROVAL_ROLE ( '' ) ;
#70 = DIRECTION ( 'NONE',  ( -3.491481338843133355E-15, 1.224646799147353207E-16, -1.000000000000000000 ) ) ;
#71 = ORIENTED_EDGE ( 'NONE', *, *, #12, .F. ) ;
#72 = CARTESIAN_POINT ( 'NONE',  ( -6.413633676021355712E-31, 2.249599866068799511E-32, -1.836937693084290584E-16 ) ) ;
#73 = ADVANCED_FACE ( 'NONE', ( #4, #203 ), #159, .T. ) ;
#74 = ORIENTED_EDGE ( 'NONE', *, *, #46, .T. ) ;
#75 = CARTESIAN_POINT ( 'NONE',  ( 3.491481338843133355E-14, 2.249639673992782306E-32, 10.00000000000000000 ) ) ;
#76 = PLANE ( 'NONE',  #115 ) ;
#77 = VERTEX_POINT ( 'NONE', #109 ) ;
#78 = FACE_OUTER_BOUND ( 'NONE', #11, .T. ) ;
#79 = DIRECTION ( 'NONE',  ( 4.275831445896958607E-31, 1.000000000000000000, 1.224646799147353207E-16 ) ) ;
#80 = CC_DESIGN_DATE_AND_TIME_ASSIGNMENT ( #165, #38, ( #31 ) ) ;
#81 = DATE_AND_TIME ( #24, #33 ) ;
#82 = CC_DESIGN_PERSON_AND_ORGANIZATION_ASSIGNMENT ( #182, #7, ( #152 ) ) ;
#83 = CALENDAR_DATE ( 2021, 1, 11 ) ;
#84 = DATE_AND_TIME ( #180, #121 ) ;
#85 = ORIENTED_EDGE ( 'NONE', *, *, #27, .F. ) ;
#86 = CARTESIAN_POINT ( 'NONE',  ( 1.969195475107527212E-13, -6.907007947191071980E-15, 56.39999999999999858 ) ) ;
#87 = ADVANCED_FACE ( 'NONE', ( #15 ), #18, .F. ) ;
#88 = EDGE_LOOP ( 'NONE', ( #13 ) ) ;
#89 = APPROVAL_PERSON_ORGANIZATION ( #195, #36, #164 ) ;
#90 = DIRECTION ( 'NONE',  ( 3.491481338843133355E-15, -1.224646799147353207E-16, 1.000000000000000000 ) ) ;
#91 = CARTESIAN_POINT ( 'NONE',  ( 1.990144363140586139E-13, 2.399999999999995914, 57.00000000000000000 ) ) ;
#92 = APPLICATION_CONTEXT ( 'configuration controlled 3d designs of mechanical parts and assemblies' ) ;
#93 = CARTESIAN_POINT ( 'NONE',  ( 1.990144363140586139E-13, 1.799711739194220919E-32, 57.00000000000000000 ) ) ;
#94 = AXIS2_PLACEMENT_3D ( 'NONE', #199, #58, #118 ) ;
#95 = CC_DESIGN_APPROVAL ( #143, ( #152 ) ) ;
#96 = DIRECTION ( 'NONE',  ( -3.491481338843133355E-15, 1.224646799147353207E-16, -1.000000000000000000 ) ) ;
#97 = PERSON_AND_ORGANIZATION ( #194, #183 ) ;
#98 = APPROVAL_STATUS ( 'not_yet_approved' ) ;
#99 = AXIS2_PLACEMENT_3D ( 'NONE', #161, #138, #192 ) ;
#100 = COORDINATED_UNIVERSAL_TIME_OFFSET ( 1, 0, .AHEAD. ) ;
#101 = COORDINATED_UNIVERSAL_TIME_OFFSET ( 1, 0, .AHEAD. ) ;
#102 = APPROVAL_STATUS ( 'not_yet_approved' ) ;
#103 = PRODUCT_DEFINITION_SHAPE ( 'NONE', 'NONE',  #31 ) ;
#104 = EDGE_LOOP ( 'NONE', ( #120 ) ) ;
#105 = MANIFOLD_SOLID_BREP ( 'Corps-Déplacer/Copier1[2]', #196 ) ;
#106 = DIRECTION ( 'NONE',  ( -3.491481338843133355E-15, 1.224646799147353207E-16, -1.000000000000000000 ) ) ;
#107 = ADVANCED_FACE ( 'NONE', ( #17 ), #110, .T. ) ;
#108 = CIRCLE ( 'NONE', #132, 2.400000000000003020 ) ;
#109 = CARTESIAN_POINT ( 'NONE',  ( 6.413860661669502591E-31, 2.999999999999995559, 1.837002704357763860E-16 ) ) ;
#110 = PLANE ( 'NONE',  #166 ) ;
#111 = CARTESIAN_POINT ( 'NONE',  ( -3.206816838010677856E-31, 1.124799933034399755E-32, -9.184688465421452921E-17 ) ) ;
#112 = COORDINATED_UNIVERSAL_TIME_OFFSET ( 1, 0, .AHEAD. ) ;
#113 = ADVANCED_FACE ( 'NONE', ( #78 ), #28, .F. ) ;
#114 = PERSON_AND_ORGANIZATION_ROLE ( 'creator' ) ;
#115 = AXIS2_PLACEMENT_3D ( 'NONE', #93, #63, #193 ) ;
#116 = COORDINATED_UNIVERSAL_TIME_OFFSET ( 1, 0, .AHEAD. ) ;
#117 = PERSON_AND_ORGANIZATION ( #194, #183 ) ;
#118 = DIRECTION ( 'NONE',  ( 0.0000000000000000000, 1.000000000000000000, 0.0000000000000000000 ) ) ;
#119 = CC_DESIGN_PERSON_AND_ORGANIZATION_ASSIGNMENT ( #117, #114, ( #152 ) ) ;
#120 = ORIENTED_EDGE ( 'NONE', *, *, #27, .T. ) ;
#121 = LOCAL_TIME ( 10, 45, 49.00000000000000000, #112 ) ;
#122 = CARTESIAN_POINT ( 'NONE',  ( 1.969195475107527212E-13, 2.999999999999995559, 56.39999999999999858 ) ) ;
#123 = AXIS2_PLACEMENT_3D ( 'NONE', #142, #126, #125 ) ;
#124 = APPROVAL ( #21, 'UNSPECIFIED' ) ;
#125 = DIRECTION ( 'NONE',  ( 0.0000000000000000000, 1.000000000000000000, 0.0000000000000000000 ) ) ;
#126 = DIRECTION ( 'NONE',  ( -3.491481338843133355E-15, 1.224646799147353207E-16, -1.000000000000000000 ) ) ;
#127 = AXIS2_PLACEMENT_3D ( 'NONE', #41, #9, #129 ) ;
#128 = PERSON_AND_ORGANIZATION ( #194, #183 ) ;
#129 = DIRECTION ( 'NONE',  ( 1.000000000000000000, 0.0000000000000000000, 0.0000000000000000000 ) ) ;
#130 = DATE_AND_TIME ( #83, #163 ) ;
#131 = PERSON_AND_ORGANIZATION_ROLE ( 'creator' ) ;
#132 = AXIS2_PLACEMENT_3D ( 'NONE', #141, #14, #60 ) ;
#133 = DIRECTION ( 'NONE',  ( 4.275831445896959482E-31, 1.000000000000000000, 1.224646799147353207E-16 ) ) ;
#134 = ORIENTED_EDGE ( 'NONE', *, *, #68, .T. ) ;
#135 = EDGE_LOOP ( 'NONE', ( #169 ) ) ;
#136 =( GEOMETRIC_REPRESENTATION_CONTEXT ( 3 ) GLOBAL_UNCERTAINTY_ASSIGNED_CONTEXT ( ( #47 ) ) GLOBAL_UNIT_ASSIGNED_CONTEXT ( ( #61, #140, #51 ) ) REPRESENTATION_CONTEXT ( 'NONE', 'WORKASPACE' ) );
#137 = ADVANCED_FACE ( 'NONE', ( #32 ), #76, .F. ) ;
#138 = DIRECTION ( 'NONE',  ( 3.491481338843133355E-15, -1.224646799147353207E-16, 1.000000000000000000 ) ) ;
#139 = FACE_OUTER_BOUND ( 'NONE', #185, .T. ) ;
#140 =( NAMED_UNIT ( * ) PLANE_ANGLE_UNIT ( ) SI_UNIT ( $, .RADIAN. ) );
#141 = CARTESIAN_POINT ( 'NONE',  ( 1.990144363140586139E-13, -6.980486755139912911E-15, 57.00000000000000000 ) ) ;
#142 = CARTESIAN_POINT ( 'NONE',  ( 3.491481338843133355E-14, -1.224646799147353256E-15, 10.00000000000000000 ) ) ;
#143 = APPROVAL ( #98, 'UNSPECIFIED' ) ;
#144 = CC_DESIGN_SECURITY_CLASSIFICATION ( #64, ( #152 ) ) ;
#145 = PERSON_AND_ORGANIZATION_ROLE ( 'design_owner' ) ;
#146 = CALENDAR_DATE ( 2021, 1, 11 ) ;
#147 = AXIS2_PLACEMENT_3D ( 'NONE', #86, #70, #59 ) ;
#148 = APPROVAL_PERSON_ORGANIZATION ( #197, #143, #22 ) ;
#149 = CC_DESIGN_PERSON_AND_ORGANIZATION_ASSIGNMENT ( #67, #131, ( #31 ) ) ;
#150 = APPROVAL_DATE_TIME ( #84, #36 ) ;
#151 = EDGE_LOOP ( 'NONE', ( #71 ) ) ;
#152 = PRODUCT_DEFINITION_FORMATION_WITH_SPECIFIED_SOURCE ( 'ANY', '', #1, .NOT_KNOWN. ) ;
#153 = ORIENTED_EDGE ( 'NONE', *, *, #68, .F. ) ;
#154 = CC_DESIGN_PERSON_AND_ORGANIZATION_ASSIGNMENT ( #97, #42, ( #64 ) ) ;
#155 = CIRCLE ( 'NONE', #176, 2.999999999999995559 ) ;
#156 = DIRECTION ( 'NONE',  ( 4.275831445896959482E-31, 1.000000000000000000, 1.224646799147353207E-16 ) ) ;
#157 = DIRECTION ( 'NONE',  ( 3.491481338843133355E-15, -1.224646799147353207E-16, 1.000000000000000000 ) ) ;
#158 = FACE_OUTER_BOUND ( 'NONE', #186, .T. ) ;
#159 = CONICAL_SURFACE ( 'NONE', #23, 2.400000000000003020, 0.7853981633974453924 ) ;
#160 = CYLINDRICAL_SURFACE ( 'NONE', #65, 2.999999999999996447 ) ;
#161 = CARTESIAN_POINT ( 'NONE',  ( 3.491481338843133355E-14, 2.249639673992782306E-32, 10.00000000000000000 ) ) ;
#162 = SHAPE_DEFINITION_REPRESENTATION ( #103, #37 ) ;
#163 = LOCAL_TIME ( 10, 45, 49.00000000000000000, #116 ) ;
#164 = APPROVAL_ROLE ( '' ) ;
#165 = DATE_AND_TIME ( #146, #39 ) ;
#166 = AXIS2_PLACEMENT_3D ( 'NONE', #75, #90, #34 ) ;
#167 = EDGE_LOOP ( 'NONE', ( #85 ) ) ;
#168 = ADVANCED_FACE ( 'NONE', ( #3, #139 ), #48, .T. ) ;
#169 = ORIENTED_EDGE ( 'NONE', *, *, #190, .F. ) ;
#170 = ORIENTED_EDGE ( 'NONE', *, *, #190, .T. ) ;
#171 = DIRECTION ( 'NONE',  ( -3.491481338843133355E-15, 1.224646799147353207E-16, -1.000000000000000000 ) ) ;
#172 = CARTESIAN_POINT ( 'NONE',  ( 3.491481338843133355E-14, 2.999999999999995559, 10.00000000000000000 ) ) ;
#173 = PRODUCT_RELATED_PRODUCT_CATEGORY ( 'detail', '', ( #1 ) ) ;
#174 = VERTEX_POINT ( 'NONE', #172 ) ;
#175 = DIRECTION ( 'NONE',  ( -4.275831445896958607E-31, -1.000000000000000000, -1.224646799147353207E-16 ) ) ;
#176 = AXIS2_PLACEMENT_3D ( 'NONE', #72, #45, #133 ) ;
#177 = DIRECTION ( 'NONE',  ( 0.0000000000000000000, 1.000000000000000000, 0.0000000000000000000 ) ) ;
#178 = CALENDAR_DATE ( 2021, 1, 11 ) ;
#179 = MECHANICAL_CONTEXT ( 'NONE', #200, 'mechanical' ) ;
#180 = CALENDAR_DATE ( 2021, 1, 11 ) ;
#181 = CIRCLE ( 'NONE', #147, 3.000000000000002665 ) ;
#182 = PERSON_AND_ORGANIZATION ( #194, #183 ) ;
#183 = ORGANIZATION ( 'UNSPECIFIED', 'UNSPECIFIED', '' ) ;
#184 = CC_DESIGN_APPROVAL ( #36, ( #64 ) ) ;
#185 = EDGE_LOOP ( 'NONE', ( #202 ) ) ;
#186 = EDGE_LOOP ( 'NONE', ( #74 ) ) ;
#187 = CC_DESIGN_APPROVAL ( #124, ( #31 ) ) ;
#188 = EDGE_LOOP ( 'NONE', ( #153 ) ) ;
#189 = CARTESIAN_POINT ( 'NONE',  ( 3.491481338843133355E-14, 2.999999999999995559, 10.00000000000000000 ) ) ;
#190 = EDGE_CURVE ( 'NONE', #29, #29, #108, .T. ) ;
#191 = VERTEX_POINT ( 'NONE', #189 ) ;
#192 = DIRECTION ( 'NONE',  ( -4.275831445896958607E-31, -1.000000000000000000, -1.224646799147353207E-16 ) ) ;
#193 = DIRECTION ( 'NONE',  ( 4.275831445896958607E-31, 1.000000000000000000, 1.224646799147353207E-16 ) ) ;
#194 = PERSON ( 'UNSPECIFIED', 'UNSPECIFIED', 'UNSPECIFIED', ('UNSPECIFIED'), ('UNSPECIFIED'), ('UNSPECIFIED') ) ;
#195 = PERSON_AND_ORGANIZATION ( #194, #183 ) ;
#196 = CLOSED_SHELL ( 'NONE', ( #87, #50, #107 ) ) ;
#197 = PERSON_AND_ORGANIZATION ( #194, #183 ) ;
#198 = CLOSED_SHELL ( 'NONE', ( #113, #168, #73, #137 ) ) ;
#199 = CARTESIAN_POINT ( 'NONE',  ( 3.491481338843133355E-14, -1.224646799147353256E-15, 10.00000000000000000 ) ) ;
#200 = APPLICATION_CONTEXT ( 'configuration controlled 3d designs of mechanical parts and assemblies' ) ;
#201 = CC_DESIGN_DATE_AND_TIME_ASSIGNMENT ( #130, #55, ( #64 ) ) ;
#202 = ORIENTED_EDGE ( 'NONE', *, *, #12, .T. ) ;
#203 = FACE_BOUND ( 'NONE', #26, .T. ) ;
ENDSEC;
END-ISO-10303-21;
