ISO-10303-21;
HEADER;
FILE_DESCRIPTION (( 'STEP AP203' ),
    '1' );
FILE_NAME ('57182.step',
    '2021-11-01T09:45:49',
    ( '' ),
    ( '' ),
    'SwSTEP 2.0',
    'SolidWorks 2019',
    '' );
FILE_SCHEMA (( 'CONFIG_CONTROL_DESIGN' ));
ENDSEC;

DATA;
#1 = DIRECTION ( 'NONE',  ( -4.275831445896958607E-31, -1.000000000000000000, -1.224646799147353207E-16 ) ) ;
#2 = DIRECTION ( 'NONE',  ( 3.491481338843133355E-15, -1.227517819005651059E-16, 1.000000000000000000 ) ) ;
#3 = ADVANCED_FACE ( 'NONE', ( #162, #41 ), #168, .F. ) ;
#4 = FACE_OUTER_BOUND ( 'NONE', #166, .T. ) ;
#5 = AXIS2_PLACEMENT_3D ( 'NONE', #94, #17, #222 ) ;
#6 = ADVANCED_FACE ( 'NONE', ( #107, #186 ), #79, .T. ) ;
#7 = PERSON_AND_ORGANIZATION ( #161, #118 ) ;
#8 = CALENDAR_DATE ( 2021, 1, 11 ) ;
#9 = CALENDAR_DATE ( 2021, 1, 11 ) ;
#10 = EDGE_CURVE ( 'NONE', #171, #171, #48, .T. ) ;
#11 = PRODUCT_DEFINITION_SHAPE ( 'NONE', 'NONE',  #165 ) ;
#12 = EDGE_LOOP ( 'NONE', ( #183 ) ) ;
#13 = DIRECTION ( 'NONE',  ( -3.491481338843133355E-15, 1.224646799147353207E-16, -1.000000000000000000 ) ) ;
#14 = FACE_OUTER_BOUND ( 'NONE', #91, .T. ) ;
#15 = ADVANCED_FACE ( 'NONE', ( #208 ), #29, .F. ) ;
#16 = DIRECTION ( 'NONE',  ( 3.491481338843133355E-15, -1.227517819005651059E-16, 1.000000000000000000 ) ) ;
#17 = DIRECTION ( 'NONE',  ( 3.491481338843133355E-15, -1.224646799147353207E-16, 1.000000000000000000 ) ) ;
#18 =( GEOMETRIC_REPRESENTATION_CONTEXT ( 3 ) GLOBAL_UNCERTAINTY_ASSIGNED_CONTEXT ( ( #30 ) ) GLOBAL_UNIT_ASSIGNED_CONTEXT ( ( #105, #19, #104 ) ) REPRESENTATION_CONTEXT ( 'NONE', 'WORKASPACE' ) );
#19 =( NAMED_UNIT ( * ) PLANE_ANGLE_UNIT ( ) SI_UNIT ( $, .RADIAN. ) );
#20 = CALENDAR_DATE ( 2021, 1, 11 ) ;
#21 = PERSON_AND_ORGANIZATION ( #161, #118 ) ;
#22 = CARTESIAN_POINT ( 'NONE',  ( 4.184300688578264356E-14, 2.999999999999997780, 11.98431348329843793 ) ) ;
#23 = CC_DESIGN_SECURITY_CLASSIFICATION ( #134, ( #139 ) ) ;
#24 = COORDINATED_UNIVERSAL_TIME_OFFSET ( 1, 0, .AHEAD. ) ;
#25 = ORIENTED_EDGE ( 'NONE', *, *, #60, .F. ) ;
#26 = MANIFOLD_SOLID_BREP ( 'Corps-Déplacer/Copier1[1]', #92 ) ;
#27 = ORIENTED_EDGE ( 'NONE', *, *, #10, .T. ) ;
#28 = CIRCLE ( 'NONE', #157, 3.000000000000002665 ) ;
#29 = PLANE ( 'NONE',  #5 ) ;
#30 = UNCERTAINTY_MEASURE_WITH_UNIT (LENGTH_MEASURE( 1.000000000000000082E-05 ), #105, 'distance_accuracy_value', 'NONE');
#31 = DIRECTION ( 'NONE',  ( 0.0000000000000000000, -1.000000000000000000, 0.0000000000000000000 ) ) ;
#32 = APPROVAL ( #180, 'UNSPECIFIED' ) ;
#33 = AXIS2_PLACEMENT_3D ( 'NONE', #65, #113, #44 ) ;
#34 = DIRECTION ( 'NONE',  ( -4.275831445896958607E-31, -1.000000000000000000, -1.224646799147353207E-16 ) ) ;
#35 = FACE_OUTER_BOUND ( 'NONE', #56, .T. ) ;
#36 = CARTESIAN_POINT ( 'NONE',  ( 3.491481338843133355E-14, 2.249639673992782306E-32, 10.00000000000000000 ) ) ;
#37 = CC_DESIGN_DATE_AND_TIME_ASSIGNMENT ( #156, #190, ( #165 ) ) ;
#38 = APPROVAL_PERSON_ORGANIZATION ( #108, #32, #204 ) ;
#39 = MECHANICAL_CONTEXT ( 'NONE', #140, 'mechanical' ) ;
#40 = CC_DESIGN_APPROVAL ( #32, ( #134 ) ) ;
#41 = FACE_OUTER_BOUND ( 'NONE', #146, .T. ) ;
#42 = CC_DESIGN_PERSON_AND_ORGANIZATION_ASSIGNMENT ( #126, #61, ( #134 ) ) ;
#43 = AXIS2_PLACEMENT_3D ( 'NONE', #53, #212, #136 ) ;
#44 = DIRECTION ( 'NONE',  ( 4.275831445896959482E-31, 1.000000000000000000, 1.224646799147353207E-16 ) ) ;
#45 = CARTESIAN_POINT ( 'NONE',  ( 3.491481338843132724E-14, -1.227517819005650763E-15, 9.999999999999998224 ) ) ;
#46 = CC_DESIGN_DATE_AND_TIME_ASSIGNMENT ( #182, #106, ( #134 ) ) ;
#47 = CARTESIAN_POINT ( 'NONE',  ( 3.491481338843132724E-14, -2.750000000000000000, 9.999999999999998224 ) ) ;
#48 = CIRCLE ( 'NONE', #202, 2.749999999999998668 ) ;
#49 = FACE_OUTER_BOUND ( 'NONE', #127, .T. ) ;
#50 = COORDINATED_UNIVERSAL_TIME_OFFSET ( 1, 0, .AHEAD. ) ;
#51 = DATE_AND_TIME ( #9, #130 ) ;
#52 = DATE_AND_TIME ( #8, #169 ) ;
#53 = CARTESIAN_POINT ( 'NONE',  ( 0.0000000000000000000, 0.0000000000000000000, 0.0000000000000000000 ) ) ;
#54 = COORDINATED_UNIVERSAL_TIME_OFFSET ( 1, 0, .AHEAD. ) ;
#55 = AXIS2_PLACEMENT_3D ( 'NONE', #67, #2, #100 ) ;
#56 = EDGE_LOOP ( 'NONE', ( #179 ) ) ;
#57 = ADVANCED_BREP_SHAPE_REPRESENTATION ( '57182', ( #26, #98, #43 ), #18 ) ;
#58 = AXIS2_PLACEMENT_3D ( 'NONE', #62, #129, #34 ) ;
#59 = ORIENTED_EDGE ( 'NONE', *, *, #219, .F. ) ;
#60 = EDGE_CURVE ( 'NONE', #97, #97, #63, .T. ) ;
#61 = PERSON_AND_ORGANIZATION_ROLE ( 'classification_officer' ) ;
#62 = CARTESIAN_POINT ( 'NONE',  ( 3.491481338843133355E-14, 2.249639673992782306E-32, 10.00000000000000000 ) ) ;
#63 = CIRCLE ( 'NONE', #121, 2.400000000000003020 ) ;
#64 = ADVANCED_FACE ( 'NONE', ( #4 ), #112, .F. ) ;
#65 = CARTESIAN_POINT ( 'NONE',  ( 0.0000000000000000000, 0.0000000000000000000, 0.0000000000000000000 ) ) ;
#66 = PLANE ( 'NONE',  #58 ) ;
#67 = CARTESIAN_POINT ( 'NONE',  ( -1.178610278492804302E-30, 1.888791723648339989E-32, -3.375674002265539055E-16 ) ) ;
#68 = CARTESIAN_POINT ( 'NONE',  ( 3.491481338843132724E-14, -1.227517819005650763E-15, 9.999999999999998224 ) ) ;
#69 = APPROVAL_PERSON_ORGANIZATION ( #216, #209, #120 ) ;
#70 = APPROVAL_STATUS ( 'not_yet_approved' ) ;
#71 = PERSON_AND_ORGANIZATION_ROLE ( 'design_supplier' ) ;
#72 = ADVANCED_FACE ( 'NONE', ( #35, #14 ), #148, .T. ) ;
#73 = DATE_AND_TIME ( #178, #213 ) ;
#74 = CC_DESIGN_APPROVAL ( #81, ( #139 ) ) ;
#75 = APPROVAL_DATE_TIME ( #73, #32 ) ;
#76 = ORIENTED_EDGE ( 'NONE', *, *, #219, .T. ) ;
#77 = DIRECTION ( 'NONE',  ( -4.285855558155653280E-31, -1.000000000000000000, -1.227517819005650812E-16 ) ) ;
#78 = CARTESIAN_POINT ( 'NONE',  ( 4.184300688578264356E-14, -1.978301491901008002E-15, 11.98431348329843793 ) ) ;
#79 = CYLINDRICAL_SURFACE ( 'NONE', #184, 2.749999999999999112 ) ;
#80 = DIRECTION ( 'NONE',  ( 3.491481338843133355E-15, -1.224646799147353207E-16, 1.000000000000000000 ) ) ;
#81 = APPROVAL ( #70, 'UNSPECIFIED' ) ;
#82 = CONICAL_SURFACE ( 'NONE', #154, 2.400000000000003020, 0.7853981633974453924 ) ;
#83 = APPLICATION_PROTOCOL_DEFINITION ( 'international standard', 'config_control_design', 1994, #140 ) ;
#84 = LOCAL_TIME ( 10, 45, 49.00000000000000000, #145 ) ;
#85 = VERTEX_POINT ( 'NONE', #22 ) ;
#86 = PERSON_AND_ORGANIZATION_ROLE ( 'creator' ) ;
#87 = CIRCLE ( 'NONE', #55, 2.749999999999999112 ) ;
#88 = CARTESIAN_POINT ( 'NONE',  ( 3.491481338843132724E-14, -2.750000000000000000, 9.999999999999998224 ) ) ;
#89 = ORIENTED_EDGE ( 'NONE', *, *, #193, .T. ) ;
#90 = AXIS2_PLACEMENT_3D ( 'NONE', #181, #207, #153 ) ;
#91 = EDGE_LOOP ( 'NONE', ( #218 ) ) ;
#92 = CLOSED_SHELL ( 'NONE', ( #72, #150, #64, #3, #99 ) ) ;
#93 = DESIGN_CONTEXT ( 'detailed design', #175, 'design' ) ;
#94 = CARTESIAN_POINT ( 'NONE',  ( -3.206816838010677856E-31, 1.124799933034399755E-32, -9.184688465421452921E-17 ) ) ;
#95 = DIRECTION ( 'NONE',  ( 4.275831445896958607E-31, 1.000000000000000000, 1.224646799147353207E-16 ) ) ;
#96 = AXIS2_PLACEMENT_3D ( 'NONE', #135, #13, #95 ) ;
#97 = VERTEX_POINT ( 'NONE', #102 ) ;
#98 = MANIFOLD_SOLID_BREP ( 'Corps-Déplacer/Copier1[2]', #196 ) ;
#99 = ADVANCED_FACE ( 'NONE', ( #49 ), #151, .F. ) ;
#100 = DIRECTION ( 'NONE',  ( -4.285855558155653280E-31, -1.000000000000000000, -1.227517819005651059E-16 ) ) ;
#101 = CARTESIAN_POINT ( 'NONE',  ( -6.413731847436034514E-31, 0.0000000000000000000, -1.836965810494968570E-16 ) ) ;
#102 = CARTESIAN_POINT ( 'NONE',  ( 1.990144363140586139E-13, 2.399999999999995914, 57.00000000000000000 ) ) ;
#103 = CC_DESIGN_APPROVAL ( #209, ( #165 ) ) ;
#104 =( NAMED_UNIT ( * ) SI_UNIT ( $, .STERADIAN. ) SOLID_ANGLE_UNIT ( ) );
#105 =( LENGTH_UNIT ( ) NAMED_UNIT ( * ) SI_UNIT ( .MILLI., .METRE. ) );
#106 = DATE_TIME_ROLE ( 'classification_date' ) ;
#107 = FACE_OUTER_BOUND ( 'NONE', #110, .T. ) ;
#108 = PERSON_AND_ORGANIZATION ( #161, #118 ) ;
#109 = EDGE_CURVE ( 'NONE', #141, #141, #28, .T. ) ;
#110 = EDGE_LOOP ( 'NONE', ( #221 ) ) ;
#111 = DIRECTION ( 'NONE',  ( 0.0000000000000000000, 1.000000000000000000, 0.0000000000000000000 ) ) ;
#112 = PLANE ( 'NONE',  #96 ) ;
#113 = DIRECTION ( 'NONE',  ( -3.491481338843133355E-15, 1.224646799147353207E-16, -1.000000000000000000 ) ) ;
#114 = CIRCLE ( 'NONE', #176, 2.749999999999998668 ) ;
#115 = CARTESIAN_POINT ( 'NONE',  ( 1.969195475107527212E-13, -6.907007947191071980E-15, 56.39999999999999858 ) ) ;
#116 = FACE_OUTER_BOUND ( 'NONE', #143, .T. ) ;
#117 = CARTESIAN_POINT ( 'NONE',  ( -2.357220556985608603E-30, -2.749999999999999112, -6.751348004531078111E-16 ) ) ;
#118 = ORGANIZATION ( 'UNSPECIFIED', 'UNSPECIFIED', '' ) ;
#119 = SECURITY_CLASSIFICATION_LEVEL ( 'unclassified' ) ;
#120 = APPROVAL_ROLE ( '' ) ;
#121 = AXIS2_PLACEMENT_3D ( 'NONE', #170, #188, #189 ) ;
#122 = ORIENTED_EDGE ( 'NONE', *, *, #167, .F. ) ;
#123 = EDGE_LOOP ( 'NONE', ( #76 ) ) ;
#124 = CC_DESIGN_PERSON_AND_ORGANIZATION_ASSIGNMENT ( #158, #71, ( #139 ) ) ;
#125 = AXIS2_PLACEMENT_3D ( 'NONE', #36, #80, #1 ) ;
#126 = PERSON_AND_ORGANIZATION ( #161, #118 ) ;
#127 = EDGE_LOOP ( 'NONE', ( #59 ) ) ;
#128 = PRODUCT ( '57182', '57182', '', ( #39 ) ) ;
#129 = DIRECTION ( 'NONE',  ( 3.491481338843133355E-15, -1.224646799147353207E-16, 1.000000000000000000 ) ) ;
#130 = LOCAL_TIME ( 10, 45, 49.00000000000000000, #54 ) ;
#131 = DIRECTION ( 'NONE',  ( 3.491481338843133355E-15, -1.227517819005651059E-16, 1.000000000000000000 ) ) ;
#132 = CARTESIAN_POINT ( 'NONE',  ( 1.990144363140586139E-13, -6.980486755139912911E-15, 57.00000000000000000 ) ) ;
#133 = FACE_OUTER_BOUND ( 'NONE', #12, .T. ) ;
#134 = SECURITY_CLASSIFICATION ( '', '', #119 ) ;
#135 = CARTESIAN_POINT ( 'NONE',  ( 1.990144363140586139E-13, 1.799711739194220919E-32, 57.00000000000000000 ) ) ;
#136 = DIRECTION ( 'NONE',  ( 1.000000000000000000, 0.0000000000000000000, 0.0000000000000000000 ) ) ;
#137 = VERTEX_POINT ( 'NONE', #88 ) ;
#138 = APPLICATION_PROTOCOL_DEFINITION ( 'international standard', 'config_control_design', 1994, #175 ) ;
#139 = PRODUCT_DEFINITION_FORMATION_WITH_SPECIFIED_SOURCE ( 'ANY', '', #128, .NOT_KNOWN. ) ;
#140 = APPLICATION_CONTEXT ( 'configuration controlled 3d designs of mechanical parts and assemblies' ) ;
#141 = VERTEX_POINT ( 'NONE', #159 ) ;
#142 = ADVANCED_FACE ( 'NONE', ( #116 ), #66, .T. ) ;
#143 = EDGE_LOOP ( 'NONE', ( #27 ) ) ;
#144 = CC_DESIGN_PERSON_AND_ORGANIZATION_ASSIGNMENT ( #21, #86, ( #139 ) ) ;
#145 = COORDINATED_UNIVERSAL_TIME_OFFSET ( 1, 0, .AHEAD. ) ;
#146 = EDGE_LOOP ( 'NONE', ( #89 ) ) ;
#147 = ORIENTED_EDGE ( 'NONE', *, *, #60, .T. ) ;
#148 = CYLINDRICAL_SURFACE ( 'NONE', #33, 3.000000000000000000 ) ;
#149 = DIRECTION ( 'NONE',  ( -3.491481338843133355E-15, 1.227517819005651059E-16, -1.000000000000000000 ) ) ;
#150 = ADVANCED_FACE ( 'NONE', ( #133, #172 ), #82, .T. ) ;
#151 = PLANE ( 'NONE',  #125 ) ;
#152 = DIRECTION ( 'NONE',  ( -3.491481338843133355E-15, 1.224646799147353207E-16, -1.000000000000000000 ) ) ;
#153 = DIRECTION ( 'NONE',  ( -4.342506852882607869E-31, -1.000000000000000000, -1.227517819005651059E-16 ) ) ;
#154 = AXIS2_PLACEMENT_3D ( 'NONE', #132, #205, #111 ) ;
#155 = APPROVAL_STATUS ( 'not_yet_approved' ) ;
#156 = DATE_AND_TIME ( #20, #187 ) ;
#157 = AXIS2_PLACEMENT_3D ( 'NONE', #115, #152, #210 ) ;
#158 = PERSON_AND_ORGANIZATION ( #161, #118 ) ;
#159 = CARTESIAN_POINT ( 'NONE',  ( 1.969195475107527212E-13, 2.999999999999995559, 56.39999999999999858 ) ) ;
#160 = CC_DESIGN_PERSON_AND_ORGANIZATION_ASSIGNMENT ( #211, #198, ( #165 ) ) ;
#161 = PERSON ( 'UNSPECIFIED', 'UNSPECIFIED', 'UNSPECIFIED', ('UNSPECIFIED'), ('UNSPECIFIED'), ('UNSPECIFIED') ) ;
#162 = FACE_OUTER_BOUND ( 'NONE', #123, .T. ) ;
#163 = EDGE_LOOP ( 'NONE', ( #199 ) ) ;
#164 = EDGE_LOOP ( 'NONE', ( #147 ) ) ;
#165 = PRODUCT_DEFINITION ( 'UNKNOWN', '', #139, #93 ) ;
#166 = EDGE_LOOP ( 'NONE', ( #25 ) ) ;
#167 = EDGE_CURVE ( 'NONE', #195, #195, #87, .T. ) ;
#168 = TOROIDAL_SURFACE ( 'NONE', #90, 10.75000000000000000, 8.000000000000000000 ) ;
#169 = LOCAL_TIME ( 10, 45, 49.00000000000000000, #192 ) ;
#170 = CARTESIAN_POINT ( 'NONE',  ( 1.990144363140586139E-13, -6.980486755139912911E-15, 57.00000000000000000 ) ) ;
#171 = VERTEX_POINT ( 'NONE', #47 ) ;
#172 = FACE_BOUND ( 'NONE', #164, .T. ) ;
#173 = CC_DESIGN_PERSON_AND_ORGANIZATION_ASSIGNMENT ( #215, #177, ( #128 ) ) ;
#174 = APPROVAL_DATE_TIME ( #52, #81 ) ;
#175 = APPLICATION_CONTEXT ( 'configuration controlled 3d designs of mechanical parts and assemblies' ) ;
#176 = AXIS2_PLACEMENT_3D ( 'NONE', #45, #131, #206 ) ;
#177 = PERSON_AND_ORGANIZATION_ROLE ( 'design_owner' ) ;
#178 = CALENDAR_DATE ( 2021, 1, 11 ) ;
#179 = ORIENTED_EDGE ( 'NONE', *, *, #109, .T. ) ;
#180 = APPROVAL_STATUS ( 'not_yet_approved' ) ;
#181 = CARTESIAN_POINT ( 'NONE',  ( 3.491481338843132724E-14, -1.734723475976807094E-15, 9.999999999999998224 ) ) ;
#182 = DATE_AND_TIME ( #203, #84 ) ;
#183 = ORIENTED_EDGE ( 'NONE', *, *, #109, .F. ) ;
#184 = AXIS2_PLACEMENT_3D ( 'NONE', #101, #16, #77 ) ;
#185 = DIRECTION ( 'NONE',  ( 3.491481338843133355E-15, -1.227517819005651059E-16, 1.000000000000000000 ) ) ;
#186 = FACE_OUTER_BOUND ( 'NONE', #163, .T. ) ;
#187 = LOCAL_TIME ( 10, 45, 49.00000000000000000, #50 ) ;
#188 = DIRECTION ( 'NONE',  ( -3.491481338843133355E-15, 1.224646799147353207E-16, -1.000000000000000000 ) ) ;
#189 = DIRECTION ( 'NONE',  ( 0.0000000000000000000, 1.000000000000000000, 0.0000000000000000000 ) ) ;
#190 = DATE_TIME_ROLE ( 'creation_date' ) ;
#191 = CIRCLE ( 'NONE', #220, 3.000000000000000000 ) ;
#192 = COORDINATED_UNIVERSAL_TIME_OFFSET ( 1, 0, .AHEAD. ) ;
#193 = EDGE_CURVE ( 'NONE', #85, #85, #191, .T. ) ;
#194 = APPROVAL_DATE_TIME ( #51, #209 ) ;
#195 = VERTEX_POINT ( 'NONE', #117 ) ;
#196 = CLOSED_SHELL ( 'NONE', ( #142, #6, #15 ) ) ;
#197 = PRODUCT_RELATED_PRODUCT_CATEGORY ( 'detail', '', ( #128 ) ) ;
#198 = PERSON_AND_ORGANIZATION_ROLE ( 'creator' ) ;
#199 = ORIENTED_EDGE ( 'NONE', *, *, #10, .F. ) ;
#200 = SHAPE_DEFINITION_REPRESENTATION ( #11, #57 ) ;
#201 = EDGE_LOOP ( 'NONE', ( #122 ) ) ;
#202 = AXIS2_PLACEMENT_3D ( 'NONE', #68, #185, #31 ) ;
#203 = CALENDAR_DATE ( 2021, 1, 11 ) ;
#204 = APPROVAL_ROLE ( '' ) ;
#205 = DIRECTION ( 'NONE',  ( -3.491481338843133355E-15, 1.224646799147353207E-16, -1.000000000000000000 ) ) ;
#206 = DIRECTION ( 'NONE',  ( 0.0000000000000000000, -1.000000000000000000, 0.0000000000000000000 ) ) ;
#207 = DIRECTION ( 'NONE',  ( 3.491481338843133355E-15, -1.227517819005651059E-16, 1.000000000000000000 ) ) ;
#208 = FACE_OUTER_BOUND ( 'NONE', #201, .T. ) ;
#209 = APPROVAL ( #155, 'UNSPECIFIED' ) ;
#210 = DIRECTION ( 'NONE',  ( 0.0000000000000000000, 1.000000000000000000, 0.0000000000000000000 ) ) ;
#211 = PERSON_AND_ORGANIZATION ( #161, #118 ) ;
#212 = DIRECTION ( 'NONE',  ( 0.0000000000000000000, 0.0000000000000000000, 1.000000000000000000 ) ) ;
#213 = LOCAL_TIME ( 10, 45, 49.00000000000000000, #24 ) ;
#214 = APPROVAL_ROLE ( '' ) ;
#215 = PERSON_AND_ORGANIZATION ( #161, #118 ) ;
#216 = PERSON_AND_ORGANIZATION ( #161, #118 ) ;
#217 = APPROVAL_PERSON_ORGANIZATION ( #7, #81, #214 ) ;
#218 = ORIENTED_EDGE ( 'NONE', *, *, #193, .F. ) ;
#219 = EDGE_CURVE ( 'NONE', #137, #137, #114, .T. ) ;
#220 = AXIS2_PLACEMENT_3D ( 'NONE', #78, #149, #223 ) ;
#221 = ORIENTED_EDGE ( 'NONE', *, *, #167, .T. ) ;
#222 = DIRECTION ( 'NONE',  ( -4.275831445896958607E-31, -1.000000000000000000, -1.224646799147353207E-16 ) ) ;
#223 = DIRECTION ( 'NONE',  ( 0.0000000000000000000, 1.000000000000000000, 0.0000000000000000000 ) ) ;
ENDSEC;
END-ISO-10303-21;
