ISO-10303-21;
HEADER;
FILE_DESCRIPTION (( 'STEP AP203' ),
    '1' );
FILE_NAME ('57181.step',
    '2021-11-01T09:45:48',
    ( '' ),
    ( '' ),
    'SwSTEP 2.0',
    'SolidWorks 2019',
    '' );
FILE_SCHEMA (( 'CONFIG_CONTROL_DESIGN' ));
ENDSEC;

DATA;
#1 = CC_DESIGN_APPROVAL ( #88, ( #92 ) ) ;
#2 = ORIENTED_EDGE ( 'NONE', *, *, #163, .F. ) ;
#3 = DATE_AND_TIME ( #223, #98 ) ;
#4 = PERSON_AND_ORGANIZATION_ROLE ( 'creator' ) ;
#5 = EDGE_CURVE ( 'NONE', #75, #75, #37, .T. ) ;
#6 = DIRECTION ( 'NONE',  ( -4.275831445896958607E-31, -1.000000000000000000, -1.224646799147353207E-16 ) ) ;
#7 = DIRECTION ( 'NONE',  ( -4.285855558155654155E-31, -1.000000000000000000, -1.227517819005650812E-16 ) ) ;
#8 = VERTEX_POINT ( 'NONE', #133 ) ;
#9 = CC_DESIGN_DATE_AND_TIME_ASSIGNMENT ( #3, #107, ( #24 ) ) ;
#10 = FACE_OUTER_BOUND ( 'NONE', #70, .T. ) ;
#11 = COORDINATED_UNIVERSAL_TIME_OFFSET ( 1, 0, .AHEAD. ) ;
#12 = APPLICATION_CONTEXT ( 'configuration controlled 3d designs of mechanical parts and assemblies' ) ;
#13 = CARTESIAN_POINT ( 'NONE',  ( 2.793185071074506053E-14, -2.249999999999998668, 7.999999999999998224 ) ) ;
#14 = APPROVAL_ROLE ( '' ) ;
#15 = EDGE_LOOP ( 'NONE', ( #153 ) ) ;
#16 = CARTESIAN_POINT ( 'NONE',  ( 1.990144363140586139E-13, 1.799711739194220919E-32, 57.00000000000000000 ) ) ;
#17 = CC_DESIGN_APPROVAL ( #214, ( #24 ) ) ;
#18 = DATE_AND_TIME ( #221, #180 ) ;
#19 = CC_DESIGN_DATE_AND_TIME_ASSIGNMENT ( #145, #169, ( #123 ) ) ;
#20 = EDGE_LOOP ( 'NONE', ( #66 ) ) ;
#21 = DATE_AND_TIME ( #173, #64 ) ;
#22 = ORIENTED_EDGE ( 'NONE', *, *, #73, .T. ) ;
#23 = AXIS2_PLACEMENT_3D ( 'NONE', #44, #218, #213 ) ;
#24 = SECURITY_CLASSIFICATION ( '', '', #209 ) ;
#25 = AXIS2_PLACEMENT_3D ( 'NONE', #155, #141, #7 ) ;
#26 = CARTESIAN_POINT ( 'NONE',  ( -1.712588003616988562E-30, 3.766124319557959464E-32, -4.905046991270578865E-16 ) ) ;
#27 = FACE_OUTER_BOUND ( 'NONE', #15, .T. ) ;
#28 = CC_DESIGN_PERSON_AND_ORGANIZATION_ASSIGNMENT ( #96, #166, ( #123 ) ) ;
#29 = DIRECTION ( 'NONE',  ( -3.491481338843133355E-15, 1.224646799147353207E-16, -1.000000000000000000 ) ) ;
#30 = CARTESIAN_POINT ( 'NONE',  ( 1.990144363140586139E-13, -6.980486755139912911E-15, 57.00000000000000000 ) ) ;
#31 = DIRECTION ( 'NONE',  ( 1.000000000000000000, 0.0000000000000000000, 0.0000000000000000000 ) ) ;
#32 = DIRECTION ( 'NONE',  ( 0.0000000000000000000, 0.0000000000000000000, 1.000000000000000000 ) ) ;
#33 =( GEOMETRIC_REPRESENTATION_CONTEXT ( 3 ) GLOBAL_UNCERTAINTY_ASSIGNED_CONTEXT ( ( #122 ) ) GLOBAL_UNIT_ASSIGNED_CONTEXT ( ( #188, #80, #131 ) ) REPRESENTATION_CONTEXT ( 'NONE', 'WORKASPACE' ) );
#34 = CARTESIAN_POINT ( 'NONE',  ( 2.793185071074506053E-14, -2.249999999999998668, 7.999999999999998224 ) ) ;
#35 = PERSON_AND_ORGANIZATION_ROLE ( 'design_owner' ) ;
#36 = CIRCLE ( 'NONE', #210, 2.400000000000003020 ) ;
#37 = CIRCLE ( 'NONE', #196, 2.249999999999999112 ) ;
#38 = EDGE_LOOP ( 'NONE', ( #182 ) ) ;
#39 = ORIENTED_EDGE ( 'NONE', *, *, #46, .T. ) ;
#40 = CARTESIAN_POINT ( 'NONE',  ( 2.793185071074506053E-14, -9.820142552045206497E-16, 7.999999999999998224 ) ) ;
#41 = CLOSED_SHELL ( 'NONE', ( #128, #65, #194 ) ) ;
#42 = DIRECTION ( 'NONE',  ( 3.491481338843133355E-15, -1.227517819005651059E-16, 1.000000000000000000 ) ) ;
#43 = FACE_BOUND ( 'NONE', #134, .T. ) ;
#44 = CARTESIAN_POINT ( 'NONE',  ( 2.793185071074506053E-14, -1.734723475976807094E-15, 7.999999999999998224 ) ) ;
#45 = CC_DESIGN_PERSON_AND_ORGANIZATION_ASSIGNMENT ( #193, #158, ( #24 ) ) ;
#46 = EDGE_CURVE ( 'NONE', #8, #8, #167, .T. ) ;
#47 = VERTEX_POINT ( 'NONE', #62 ) ;
#48 = MECHANICAL_CONTEXT ( 'NONE', #181, 'mechanical' ) ;
#49 = EDGE_LOOP ( 'NONE', ( #206 ) ) ;
#50 = AXIS2_PLACEMENT_3D ( 'NONE', #40, #110, #179 ) ;
#51 = AXIS2_PLACEMENT_3D ( 'NONE', #71, #183, #160 ) ;
#52 = PERSON_AND_ORGANIZATION ( #152, #219 ) ;
#53 = EDGE_LOOP ( 'NONE', ( #192 ) ) ;
#54 = DIRECTION ( 'NONE',  ( 0.0000000000000000000, 1.000000000000000000, 0.0000000000000000000 ) ) ;
#55 = DIRECTION ( 'NONE',  ( 4.275831445896959482E-31, 1.000000000000000000, 1.224646799147353207E-16 ) ) ;
#56 = CC_DESIGN_APPROVAL ( #125, ( #123 ) ) ;
#57 = DIRECTION ( 'NONE',  ( 3.491481338843133355E-15, -1.224646799147353207E-16, 1.000000000000000000 ) ) ;
#58 = ADVANCED_FACE ( 'NONE', ( #74, #43 ), #143, .T. ) ;
#59 = DIRECTION ( 'NONE',  ( 0.0000000000000000000, 1.000000000000000000, 0.0000000000000000000 ) ) ;
#60 = DIRECTION ( 'NONE',  ( 0.0000000000000000000, 1.000000000000000000, 0.0000000000000000000 ) ) ;
#61 = AXIS2_PLACEMENT_3D ( 'NONE', #216, #69, #165 ) ;
#62 = CARTESIAN_POINT ( 'NONE',  ( 1.990144363140586139E-13, 2.399999999999995914, 57.00000000000000000 ) ) ;
#63 = APPROVAL_STATUS ( 'not_yet_approved' ) ;
#64 = LOCAL_TIME ( 10, 45, 48.00000000000000000, #150 ) ;
#65 = ADVANCED_FACE ( 'NONE', ( #115, #162 ), #124, .T. ) ;
#66 = ORIENTED_EDGE ( 'NONE', *, *, #142, .T. ) ;
#67 = CIRCLE ( 'NONE', #50, 2.249999999999997780 ) ;
#68 = DIRECTION ( 'NONE',  ( -3.491481338843133355E-15, 1.224646799147353207E-16, -1.000000000000000000 ) ) ;
#69 = DIRECTION ( 'NONE',  ( 3.491481338843133355E-15, -1.224646799147353207E-16, 1.000000000000000000 ) ) ;
#70 = EDGE_LOOP ( 'NONE', ( #22 ) ) ;
#71 = CARTESIAN_POINT ( 'NONE',  ( 2.793185071074506053E-14, -9.820142552045206497E-16, 7.999999999999998224 ) ) ;
#72 = APPROVAL_PERSON_ORGANIZATION ( #109, #214, #208 ) ;
#73 = EDGE_CURVE ( 'NONE', #204, #204, #67, .T. ) ;
#74 = FACE_OUTER_BOUND ( 'NONE', #49, .T. ) ;
#75 = VERTEX_POINT ( 'NONE', #94 ) ;
#76 = CIRCLE ( 'NONE', #51, 2.249999999999997780 ) ;
#77 = CALENDAR_DATE ( 2021, 1, 11 ) ;
#78 = FACE_OUTER_BOUND ( 'NONE', #197, .T. ) ;
#79 = CC_DESIGN_PERSON_AND_ORGANIZATION_ASSIGNMENT ( #52, #4, ( #92 ) ) ;
#80 =( NAMED_UNIT ( * ) PLANE_ANGLE_UNIT ( ) SI_UNIT ( $, .RADIAN. ) );
#81 = VERTEX_POINT ( 'NONE', #13 ) ;
#82 = ORIENTED_EDGE ( 'NONE', *, *, #189, .F. ) ;
#83 = CC_DESIGN_PERSON_AND_ORGANIZATION_ASSIGNMENT ( #195, #84, ( #92 ) ) ;
#84 = PERSON_AND_ORGANIZATION_ROLE ( 'design_supplier' ) ;
#85 = ORIENTED_EDGE ( 'NONE', *, *, #73, .F. ) ;
#86 = SHAPE_DEFINITION_REPRESENTATION ( #93, #146 ) ;
#87 = EDGE_LOOP ( 'NONE', ( #2 ) ) ;
#88 = APPROVAL ( #63, 'UNSPECIFIED' ) ;
#89 = COORDINATED_UNIVERSAL_TIME_OFFSET ( 1, 0, .AHEAD. ) ;
#90 = DIRECTION ( 'NONE',  ( -3.491481338843133355E-15, 1.224646799147353207E-16, -1.000000000000000000 ) ) ;
#91 = PLANE ( 'NONE',  #61 ) ;
#92 = PRODUCT_DEFINITION_FORMATION_WITH_SPECIFIED_SOURCE ( 'ANY', '', #172, .NOT_KNOWN. ) ;
#93 = PRODUCT_DEFINITION_SHAPE ( 'NONE', 'NONE',  #123 ) ;
#94 = CARTESIAN_POINT ( 'NONE',  ( -2.676905504202010024E-30, -2.249999999999999112, -7.666962084033292638E-16 ) ) ;
#95 = CARTESIAN_POINT ( 'NONE',  ( 2.793185071074506684E-14, 2.249639673992782580E-32, 8.000000000000000000 ) ) ;
#96 = PERSON_AND_ORGANIZATION ( #152, #219 ) ;
#97 = AXIS2_PLACEMENT_3D ( 'NONE', #16, #164, #130 ) ;
#98 = LOCAL_TIME ( 10, 45, 48.00000000000000000, #89 ) ;
#99 = APPROVAL_DATE_TIME ( #184, #125 ) ;
#100 = VERTEX_POINT ( 'NONE', #119 ) ;
#101 = PLANE ( 'NONE',  #191 ) ;
#102 = APPLICATION_PROTOCOL_DEFINITION ( 'international standard', 'config_control_design', 1994, #12 ) ;
#103 = PLANE ( 'NONE',  #97 ) ;
#104 = APPROVAL_STATUS ( 'not_yet_approved' ) ;
#105 = DESIGN_CONTEXT ( 'detailed design', #12, 'design' ) ;
#106 = EDGE_LOOP ( 'NONE', ( #39 ) ) ;
#107 = DATE_TIME_ROLE ( 'classification_date' ) ;
#108 = MANIFOLD_SOLID_BREP ( 'Corps-Déplacer/Copier1[1]', #203 ) ;
#109 = PERSON_AND_ORGANIZATION ( #152, #219 ) ;
#110 = DIRECTION ( 'NONE',  ( 3.491481338843133355E-15, -1.227517819005651059E-16, 1.000000000000000000 ) ) ;
#111 = FACE_OUTER_BOUND ( 'NONE', #198, .T. ) ;
#112 = ADVANCED_FACE ( 'NONE', ( #138, #127 ), #175, .T. ) ;
#113 = MANIFOLD_SOLID_BREP ( 'Corps-Déplacer/Copier1[2]', #41 ) ;
#114 = CARTESIAN_POINT ( 'NONE',  ( 1.990144363140586139E-13, -6.980486755139912911E-15, 57.00000000000000000 ) ) ;
#115 = FACE_OUTER_BOUND ( 'NONE', #38, .T. ) ;
#116 = DIRECTION ( 'NONE',  ( -3.491481338843133355E-15, 1.224646799147353207E-16, -1.000000000000000000 ) ) ;
#117 = CC_DESIGN_SECURITY_CLASSIFICATION ( #24, ( #92 ) ) ;
#118 = CALENDAR_DATE ( 2021, 1, 11 ) ;
#119 = CARTESIAN_POINT ( 'NONE',  ( 3.973982173386817808E-14, 2.999999999999997335, 11.38193731461717029 ) ) ;
#120 = TOROIDAL_SURFACE ( 'NONE', #23, 10.24999999999999822, 8.000000000000000000 ) ;
#121 = LOCAL_TIME ( 10, 45, 48.00000000000000000, #11 ) ;
#122 = UNCERTAINTY_MEASURE_WITH_UNIT (LENGTH_MEASURE( 1.000000000000000082E-05 ), #188, 'distance_accuracy_value', 'NONE');
#123 = PRODUCT_DEFINITION ( 'UNKNOWN', '', #92, #105 ) ;
#124 = CYLINDRICAL_SURFACE ( 'NONE', #25, 2.249999999999998668 ) ;
#125 = APPROVAL ( #186, 'UNSPECIFIED' ) ;
#126 = CARTESIAN_POINT ( 'NONE',  ( 3.973982173386817808E-14, -2.149862307622077181E-15, 11.38193731461717029 ) ) ;
#127 = FACE_OUTER_BOUND ( 'NONE', #53, .T. ) ;
#128 = ADVANCED_FACE ( 'NONE', ( #111 ), #101, .T. ) ;
#129 = APPROVAL_ROLE ( '' ) ;
#130 = DIRECTION ( 'NONE',  ( 4.275831445896958607E-31, 1.000000000000000000, 1.224646799147353207E-16 ) ) ;
#131 =( NAMED_UNIT ( * ) SI_UNIT ( $, .STERADIAN. ) SOLID_ANGLE_UNIT ( ) );
#132 = APPROVAL_PERSON_ORGANIZATION ( #171, #125, #14 ) ;
#133 = CARTESIAN_POINT ( 'NONE',  ( 1.969195475107527212E-13, 2.999999999999995559, 56.39999999999999858 ) ) ;
#134 = EDGE_LOOP ( 'NONE', ( #174 ) ) ;
#135 = EDGE_LOOP ( 'NONE', ( #85 ) ) ;
#136 = AXIS2_PLACEMENT_3D ( 'NONE', #159, #68, #55 ) ;
#137 = ADVANCED_FACE ( 'NONE', ( #78 ), #103, .F. ) ;
#138 = FACE_OUTER_BOUND ( 'NONE', #106, .T. ) ;
#139 = FACE_OUTER_BOUND ( 'NONE', #20, .T. ) ;
#140 = DIRECTION ( 'NONE',  ( 0.0000000000000000000, 1.000000000000000000, 0.0000000000000000000 ) ) ;
#141 = DIRECTION ( 'NONE',  ( 3.491481338843133355E-15, -1.227517819005651059E-16, 1.000000000000000000 ) ) ;
#142 = EDGE_CURVE ( 'NONE', #100, #100, #207, .T. ) ;
#143 = CONICAL_SURFACE ( 'NONE', #222, 2.400000000000003020, 0.7853981633974453924 ) ;
#144 = DIRECTION ( 'NONE',  ( 3.491481338843133355E-15, -1.224646799147353207E-16, 1.000000000000000000 ) ) ;
#145 = DATE_AND_TIME ( #77, #121 ) ;
#146 = ADVANCED_BREP_SHAPE_REPRESENTATION ( '57181', ( #108, #113, #187 ), #33 ) ;
#147 = AXIS2_PLACEMENT_3D ( 'NONE', #126, #178, #59 ) ;
#148 = COORDINATED_UNIVERSAL_TIME_OFFSET ( 1, 0, .AHEAD. ) ;
#149 = APPROVAL_DATE_TIME ( #21, #214 ) ;
#150 = COORDINATED_UNIVERSAL_TIME_OFFSET ( 1, 0, .AHEAD. ) ;
#151 = ADVANCED_FACE ( 'NONE', ( #200 ), #177, .F. ) ;
#152 = PERSON ( 'UNSPECIFIED', 'UNSPECIFIED', 'UNSPECIFIED', ('UNSPECIFIED'), ('UNSPECIFIED'), ('UNSPECIFIED') ) ;
#153 = ORIENTED_EDGE ( 'NONE', *, *, #5, .F. ) ;
#154 = APPROVAL_DATE_TIME ( #18, #88 ) ;
#155 = CARTESIAN_POINT ( 'NONE',  ( -6.413731847436034514E-31, 0.0000000000000000000, -1.836965810494968570E-16 ) ) ;
#156 = AXIS2_PLACEMENT_3D ( 'NONE', #199, #29, #54 ) ;
#157 = CC_DESIGN_PERSON_AND_ORGANIZATION_ASSIGNMENT ( #190, #35, ( #172 ) ) ;
#158 = PERSON_AND_ORGANIZATION_ROLE ( 'classification_officer' ) ;
#159 = CARTESIAN_POINT ( 'NONE',  ( 0.0000000000000000000, 0.0000000000000000000, 0.0000000000000000000 ) ) ;
#160 = DIRECTION ( 'NONE',  ( 0.0000000000000000000, -1.000000000000000000, 0.0000000000000000000 ) ) ;
#161 = CARTESIAN_POINT ( 'NONE',  ( 2.793185071074506684E-14, 2.249639673992782580E-32, 8.000000000000000000 ) ) ;
#162 = FACE_OUTER_BOUND ( 'NONE', #87, .T. ) ;
#163 = EDGE_CURVE ( 'NONE', #81, #81, #76, .T. ) ;
#164 = DIRECTION ( 'NONE',  ( -3.491481338843133355E-15, 1.224646799147353207E-16, -1.000000000000000000 ) ) ;
#165 = DIRECTION ( 'NONE',  ( -4.275831445896958607E-31, -1.000000000000000000, -1.224646799147353207E-16 ) ) ;
#166 = PERSON_AND_ORGANIZATION_ROLE ( 'creator' ) ;
#167 = CIRCLE ( 'NONE', #156, 3.000000000000002665 ) ;
#168 = LOCAL_TIME ( 10, 45, 48.00000000000000000, #148 ) ;
#169 = DATE_TIME_ROLE ( 'creation_date' ) ;
#170 = PRODUCT_RELATED_PRODUCT_CATEGORY ( 'detail', '', ( #172 ) ) ;
#171 = PERSON_AND_ORGANIZATION ( #152, #219 ) ;
#172 = PRODUCT ( '57181', '57181', '', ( #48 ) ) ;
#173 = CALENDAR_DATE ( 2021, 1, 11 ) ;
#174 = ORIENTED_EDGE ( 'NONE', *, *, #189, .T. ) ;
#175 = CYLINDRICAL_SURFACE ( 'NONE', #136, 2.999999999999999556 ) ;
#176 = AXIS2_PLACEMENT_3D ( 'NONE', #161, #57, #6 ) ;
#177 = PLANE ( 'NONE',  #176 ) ;
#178 = DIRECTION ( 'NONE',  ( -3.491481338843133355E-15, 1.227517819005651059E-16, -1.000000000000000000 ) ) ;
#179 = DIRECTION ( 'NONE',  ( 0.0000000000000000000, -1.000000000000000000, 0.0000000000000000000 ) ) ;
#180 = LOCAL_TIME ( 10, 45, 48.00000000000000000, #201 ) ;
#181 = APPLICATION_CONTEXT ( 'configuration controlled 3d designs of mechanical parts and assemblies' ) ;
#182 = ORIENTED_EDGE ( 'NONE', *, *, #5, .T. ) ;
#183 = DIRECTION ( 'NONE',  ( 3.491481338843133355E-15, -1.227517819005651059E-16, 1.000000000000000000 ) ) ;
#184 = DATE_AND_TIME ( #118, #168 ) ;
#185 = DIRECTION ( 'NONE',  ( -4.275831445896958607E-31, -1.000000000000000000, -1.224646799147353207E-16 ) ) ;
#186 = APPROVAL_STATUS ( 'not_yet_approved' ) ;
#187 = AXIS2_PLACEMENT_3D ( 'NONE', #202, #32, #31 ) ;
#188 =( LENGTH_UNIT ( ) NAMED_UNIT ( * ) SI_UNIT ( .MILLI., .METRE. ) );
#189 = EDGE_CURVE ( 'NONE', #47, #47, #36, .T. ) ;
#190 = PERSON_AND_ORGANIZATION ( #152, #219 ) ;
#191 = AXIS2_PLACEMENT_3D ( 'NONE', #95, #144, #185 ) ;
#192 = ORIENTED_EDGE ( 'NONE', *, *, #142, .F. ) ;
#193 = PERSON_AND_ORGANIZATION ( #152, #219 ) ;
#194 = ADVANCED_FACE ( 'NONE', ( #27 ), #91, .F. ) ;
#195 = PERSON_AND_ORGANIZATION ( #152, #219 ) ;
#196 = AXIS2_PLACEMENT_3D ( 'NONE', #26, #42, #217 ) ;
#197 = EDGE_LOOP ( 'NONE', ( #82 ) ) ;
#198 = EDGE_LOOP ( 'NONE', ( #212 ) ) ;
#199 = CARTESIAN_POINT ( 'NONE',  ( 1.969195475107527212E-13, -6.907007947191071980E-15, 56.39999999999999858 ) ) ;
#200 = FACE_OUTER_BOUND ( 'NONE', #135, .T. ) ;
#201 = COORDINATED_UNIVERSAL_TIME_OFFSET ( 1, 0, .AHEAD. ) ;
#202 = CARTESIAN_POINT ( 'NONE',  ( 0.0000000000000000000, 0.0000000000000000000, 0.0000000000000000000 ) ) ;
#203 = CLOSED_SHELL ( 'NONE', ( #112, #58, #137, #211, #151 ) ) ;
#204 = VERTEX_POINT ( 'NONE', #34 ) ;
#205 = APPLICATION_PROTOCOL_DEFINITION ( 'international standard', 'config_control_design', 1994, #181 ) ;
#206 = ORIENTED_EDGE ( 'NONE', *, *, #46, .F. ) ;
#207 = CIRCLE ( 'NONE', #147, 2.999999999999999556 ) ;
#208 = APPROVAL_ROLE ( '' ) ;
#209 = SECURITY_CLASSIFICATION_LEVEL ( 'unclassified' ) ;
#210 = AXIS2_PLACEMENT_3D ( 'NONE', #30, #116, #140 ) ;
#211 = ADVANCED_FACE ( 'NONE', ( #10, #139 ), #120, .F. ) ;
#212 = ORIENTED_EDGE ( 'NONE', *, *, #163, .T. ) ;
#213 = DIRECTION ( 'NONE',  ( -4.344058943149099284E-31, -1.000000000000000000, -1.227517819005651059E-16 ) ) ;
#214 = APPROVAL ( #104, 'UNSPECIFIED' ) ;
#215 = APPROVAL_PERSON_ORGANIZATION ( #220, #88, #129 ) ;
#216 = CARTESIAN_POINT ( 'NONE',  ( -3.206816838010677856E-31, 1.124799933034399755E-32, -9.184688465421452921E-17 ) ) ;
#217 = DIRECTION ( 'NONE',  ( -4.285855558155653280E-31, -1.000000000000000000, -1.227517819005651059E-16 ) ) ;
#218 = DIRECTION ( 'NONE',  ( 3.491481338843133355E-15, -1.227517819005651059E-16, 1.000000000000000000 ) ) ;
#219 = ORGANIZATION ( 'UNSPECIFIED', 'UNSPECIFIED', '' ) ;
#220 = PERSON_AND_ORGANIZATION ( #152, #219 ) ;
#221 = CALENDAR_DATE ( 2021, 1, 11 ) ;
#222 = AXIS2_PLACEMENT_3D ( 'NONE', #114, #90, #60 ) ;
#223 = CALENDAR_DATE ( 2021, 1, 11 ) ;
ENDSEC;
END-ISO-10303-21;
