ISO-10303-21;
HEADER;
FILE_DESCRIPTION (( 'STEP AP203' ),
    '1' );
FILE_NAME ('57180.step',
    '2021-11-01T09:45:47',
    ( '' ),
    ( '' ),
    'SwSTEP 2.0',
    'SolidWorks 2019',
    '' );
FILE_SCHEMA (( 'CONFIG_CONTROL_DESIGN' ));
ENDSEC;

DATA;
#1 =( NAMED_UNIT ( * ) SI_UNIT ( $, .STERADIAN. ) SOLID_ANGLE_UNIT ( ) );
#2 = ORIENTED_EDGE ( 'NONE', *, *, #213, .T. ) ;
#3 = SHAPE_DEFINITION_REPRESENTATION ( #181, #215 ) ;
#4 = FACE_OUTER_BOUND ( 'NONE', #214, .T. ) ;
#5 = ORIENTED_EDGE ( 'NONE', *, *, #66, .F. ) ;
#6 = AXIS2_PLACEMENT_3D ( 'NONE', #127, #202, #149 ) ;
#7 = FACE_OUTER_BOUND ( 'NONE', #184, .T. ) ;
#8 = DIRECTION ( 'NONE',  ( 0.0000000000000000000, 1.000000000000000000, 0.0000000000000000000 ) ) ;
#9 = FACE_OUTER_BOUND ( 'NONE', #108, .T. ) ;
#10 = ADVANCED_FACE ( 'NONE', ( #4, #196 ), #143, .F. ) ;
#11 = CARTESIAN_POINT ( 'NONE',  ( 4.145429978967847289E-14, -2.210139082994980068E-15, 11.87298334620741080 ) ) ;
#12 = LOCAL_TIME ( 10, 45, 47.00000000000000000, #72 ) ;
#13 = DIRECTION ( 'NONE',  ( -3.491481338843133355E-15, 1.227517819005651059E-16, -1.000000000000000000 ) ) ;
#14 =( LENGTH_UNIT ( ) NAMED_UNIT ( * ) SI_UNIT ( .MILLI., .METRE. ) );
#15 = CLOSED_SHELL ( 'NONE', ( #156, #221, #20 ) ) ;
#16 = CC_DESIGN_PERSON_AND_ORGANIZATION_ASSIGNMENT ( #154, #53, ( #109 ) ) ;
#17 = VERTEX_POINT ( 'NONE', #50 ) ;
#18 = APPROVAL_PERSON_ORGANIZATION ( #37, #82, #54 ) ;
#19 = EDGE_LOOP ( 'NONE', ( #85 ) ) ;
#20 = ADVANCED_FACE ( 'NONE', ( #106 ), #132, .F. ) ;
#21 = ORIENTED_EDGE ( 'NONE', *, *, #189, .T. ) ;
#22 = MANIFOLD_SOLID_BREP ( 'Corps-Déplacer/Copier1[1]', #129 ) ;
#23 = EDGE_LOOP ( 'NONE', ( #2 ) ) ;
#24 = APPROVAL_STATUS ( 'not_yet_approved' ) ;
#25 = MANIFOLD_SOLID_BREP ( 'Corps-Déplacer/Copier1[2]', #15 ) ;
#26 = EDGE_LOOP ( 'NONE', ( #58 ) ) ;
#27 = CARTESIAN_POINT ( 'NONE',  ( 1.990144363140586139E-13, -6.980486755139912911E-15, 57.00000000000000000 ) ) ;
#28 = PLANE ( 'NONE',  #87 ) ;
#29 = DIRECTION ( 'NONE',  ( -3.491481338843133355E-15, 1.224646799147353207E-16, -1.000000000000000000 ) ) ;
#30 = DIRECTION ( 'NONE',  ( 4.275831445896958607E-31, 1.000000000000000000, 1.224646799147353207E-16 ) ) ;
#31 = DIRECTION ( 'NONE',  ( 0.0000000000000000000, -1.000000000000000000, 0.0000000000000000000 ) ) ;
#32 = ADVANCED_FACE ( 'NONE', ( #131, #171 ), #95, .T. ) ;
#33 = VERTEX_POINT ( 'NONE', #67 ) ;
#34 = DESIGN_CONTEXT ( 'detailed design', #180, 'design' ) ;
#35 = DATE_AND_TIME ( #209, #46 ) ;
#36 = MECHANICAL_CONTEXT ( 'NONE', #169, 'mechanical' ) ;
#37 = PERSON_AND_ORGANIZATION ( #207, #113 ) ;
#38 = ORIENTED_EDGE ( 'NONE', *, *, #79, .F. ) ;
#39 = CIRCLE ( 'NONE', #90, 3.000000000000002665 ) ;
#40 = EDGE_LOOP ( 'NONE', ( #38 ) ) ;
#41 = CALENDAR_DATE ( 2021, 1, 11 ) ;
#42 = DATE_TIME_ROLE ( 'classification_date' ) ;
#43 = ORIENTED_EDGE ( 'NONE', *, *, #189, .F. ) ;
#44 = DIRECTION ( 'NONE',  ( 3.491481338843133355E-15, -1.224646799147353207E-16, 1.000000000000000000 ) ) ;
#45 = CIRCLE ( 'NONE', #223, 2.400000000000003020 ) ;
#46 = LOCAL_TIME ( 10, 45, 47.00000000000000000, #155 ) ;
#47 = ADVANCED_FACE ( 'NONE', ( #89 ), #200, .F. ) ;
#48 = DIRECTION ( 'NONE',  ( 3.491481338843133355E-15, -1.224646799147353207E-16, 1.000000000000000000 ) ) ;
#49 = DIRECTION ( 'NONE',  ( 4.275831445896959482E-31, 1.000000000000000000, 1.224646799147353207E-16 ) ) ;
#50 = CARTESIAN_POINT ( 'NONE',  ( 2.793185071074505422E-14, -2.000000000000001776, 7.999999999999996447 ) ) ;
#51 = APPROVAL_DATE_TIME ( #35, #104 ) ;
#52 = AXIS2_PLACEMENT_3D ( 'NONE', #173, #206, #177 ) ;
#53 = PERSON_AND_ORGANIZATION_ROLE ( 'design_owner' ) ;
#54 = APPROVAL_ROLE ( '' ) ;
#55 = PERSON_AND_ORGANIZATION ( #207, #113 ) ;
#56 = AXIS2_PLACEMENT_3D ( 'NONE', #63, #92, #185 ) ;
#57 = CIRCLE ( 'NONE', #157, 2.999999999999999556 ) ;
#58 = ORIENTED_EDGE ( 'NONE', *, *, #192, .T. ) ;
#59 = PERSON_AND_ORGANIZATION ( #207, #113 ) ;
#60 = SECURITY_CLASSIFICATION ( '', '', #183 ) ;
#61 = CARTESIAN_POINT ( 'NONE',  ( -8.571711116311304807E-31, 7.586917266660474453E-33, -2.455035638011301131E-16 ) ) ;
#62 = DIRECTION ( 'NONE',  ( -4.275831445896958607E-31, -1.000000000000000000, -1.224646799147353207E-16 ) ) ;
#63 = CARTESIAN_POINT ( 'NONE',  ( 2.793185071074506684E-14, 2.249639673992782580E-32, 8.000000000000000000 ) ) ;
#64 = AXIS2_PLACEMENT_3D ( 'NONE', #88, #165, #128 ) ;
#65 = CARTESIAN_POINT ( 'NONE',  ( 2.793185071074505422E-14, -9.820142552045204525E-16, 7.999999999999996447 ) ) ;
#66 = EDGE_CURVE ( 'NONE', #17, #17, #193, .T. ) ;
#67 = CARTESIAN_POINT ( 'NONE',  ( 2.793185071074505422E-14, -2.000000000000001776, 7.999999999999996447 ) ) ;
#68 = CIRCLE ( 'NONE', #175, 2.000000000000000888 ) ;
#69 = APPROVAL_STATUS ( 'not_yet_approved' ) ;
#70 = PERSON_AND_ORGANIZATION_ROLE ( 'creator' ) ;
#71 = ADVANCED_FACE ( 'NONE', ( #186 ), #28, .F. ) ;
#72 = COORDINATED_UNIVERSAL_TIME_OFFSET ( 1, 0, .AHEAD. ) ;
#73 = DATE_AND_TIME ( #179, #12 ) ;
#74 = AXIS2_PLACEMENT_3D ( 'NONE', #126, #48, #62 ) ;
#75 = CYLINDRICAL_SURFACE ( 'NONE', #134, 2.999999999999999556 ) ;
#76 = DIRECTION ( 'NONE',  ( -3.491481338843133355E-15, 1.224646799147353207E-16, -1.000000000000000000 ) ) ;
#77 = CARTESIAN_POINT ( 'NONE',  ( 2.793185071074505422E-14, -9.820142552045204525E-16, 7.999999999999996447 ) ) ;
#78 = FACE_OUTER_BOUND ( 'NONE', #98, .T. ) ;
#79 = EDGE_CURVE ( 'NONE', #133, #133, #99, .T. ) ;
#80 = DIRECTION ( 'NONE',  ( 1.000000000000000000, 0.0000000000000000000, 0.0000000000000000000 ) ) ;
#81 = VERTEX_POINT ( 'NONE', #178 ) ;
#82 = APPROVAL ( #24, 'UNSPECIFIED' ) ;
#83 = AXIS2_PLACEMENT_3D ( 'NONE', #210, #195, #80 ) ;
#84 = APPROVAL_DATE_TIME ( #73, #120 ) ;
#85 = ORIENTED_EDGE ( 'NONE', *, *, #211, .F. ) ;
#86 = CALENDAR_DATE ( 2021, 1, 11 ) ;
#87 = AXIS2_PLACEMENT_3D ( 'NONE', #145, #29, #30 ) ;
#88 = CARTESIAN_POINT ( 'NONE',  ( 2.793185071074506053E-14, -1.734723475976807094E-15, 7.999999999999998224 ) ) ;
#89 = FACE_OUTER_BOUND ( 'NONE', #19, .T. ) ;
#90 = AXIS2_PLACEMENT_3D ( 'NONE', #220, #76, #188 ) ;
#91 = DIRECTION ( 'NONE',  ( -4.285855558155652404E-31, -1.000000000000000000, -1.227517819005651059E-16 ) ) ;
#92 = DIRECTION ( 'NONE',  ( 3.491481338843133355E-15, -1.224646799147353207E-16, 1.000000000000000000 ) ) ;
#93 = CC_DESIGN_APPROVAL ( #82, ( #60 ) ) ;
#94 = CYLINDRICAL_SURFACE ( 'NONE', #52, 2.000000000000000000 ) ;
#95 = CONICAL_SURFACE ( 'NONE', #6, 2.400000000000003020, 0.7853981633974453924 ) ;
#96 = CARTESIAN_POINT ( 'NONE',  ( -1.714342223262260611E-30, -1.999999999999999112, -4.910071276022602262E-16 ) ) ;
#97 = CALENDAR_DATE ( 2021, 1, 11 ) ;
#98 = EDGE_LOOP ( 'NONE', ( #43 ) ) ;
#99 = CIRCLE ( 'NONE', #140, 1.999999999999999112 ) ;
#100 = APPROVAL_PERSON_ORGANIZATION ( #191, #104, #135 ) ;
#101 = APPROVAL_ROLE ( '' ) ;
#102 = EDGE_LOOP ( 'NONE', ( #5 ) ) ;
#103 = COORDINATED_UNIVERSAL_TIME_OFFSET ( 1, 0, .AHEAD. ) ;
#104 = APPROVAL ( #69, 'UNSPECIFIED' ) ;
#105 = PERSON_AND_ORGANIZATION ( #207, #113 ) ;
#106 = FACE_OUTER_BOUND ( 'NONE', #40, .T. ) ;
#107 = LOCAL_TIME ( 10, 45, 47.00000000000000000, #136 ) ;
#108 = EDGE_LOOP ( 'NONE', ( #198 ) ) ;
#109 = PRODUCT ( '57180', '57180', '', ( #36 ) ) ;
#110 = PRODUCT_RELATED_PRODUCT_CATEGORY ( 'detail', '', ( #109 ) ) ;
#111 = DIRECTION ( 'NONE',  ( -3.491481338843133355E-15, 1.224646799147353207E-16, -1.000000000000000000 ) ) ;
#112 = DIRECTION ( 'NONE',  ( 3.491481338843133355E-15, -1.227517819005651059E-16, 1.000000000000000000 ) ) ;
#113 = ORGANIZATION ( 'UNSPECIFIED', 'UNSPECIFIED', '' ) ;
#114 = DIRECTION ( 'NONE',  ( 0.0000000000000000000, -1.000000000000000000, 0.0000000000000000000 ) ) ;
#115 = DIRECTION ( 'NONE',  ( 0.0000000000000000000, 1.000000000000000000, 0.0000000000000000000 ) ) ;
#116 = APPLICATION_PROTOCOL_DEFINITION ( 'international standard', 'config_control_design', 1994, #180 ) ;
#117 = PERSON_AND_ORGANIZATION ( #207, #113 ) ;
#118 = CARTESIAN_POINT ( 'NONE',  ( 4.145429978967847289E-14, 2.999999999999997335, 11.87298334620741080 ) ) ;
#119 = APPROVAL_PERSON_ORGANIZATION ( #216, #120, #101 ) ;
#120 = APPROVAL ( #162, 'UNSPECIFIED' ) ;
#121 = DATE_AND_TIME ( #97, #107 ) ;
#122 = APPROVAL_DATE_TIME ( #158, #82 ) ;
#123 = CC_DESIGN_PERSON_AND_ORGANIZATION_ASSIGNMENT ( #55, #124, ( #60 ) ) ;
#124 = PERSON_AND_ORGANIZATION_ROLE ( 'classification_officer' ) ;
#125 = CC_DESIGN_PERSON_AND_ORGANIZATION_ASSIGNMENT ( #59, #139, ( #205 ) ) ;
#126 = CARTESIAN_POINT ( 'NONE',  ( -3.206816838010677856E-31, 1.124799933034399755E-32, -9.184688465421452921E-17 ) ) ;
#127 = CARTESIAN_POINT ( 'NONE',  ( 1.990144363140586139E-13, -6.980486755139912911E-15, 57.00000000000000000 ) ) ;
#128 = DIRECTION ( 'NONE',  ( -4.344867323496230065E-31, -1.000000000000000000, -1.227517819005651059E-16 ) ) ;
#129 = CLOSED_SHELL ( 'NONE', ( #137, #32, #71, #10, #47 ) ) ;
#130 = CC_DESIGN_APPROVAL ( #120, ( #205 ) ) ;
#131 = FACE_OUTER_BOUND ( 'NONE', #142, .T. ) ;
#132 = PLANE ( 'NONE',  #74 ) ;
#133 = VERTEX_POINT ( 'NONE', #96 ) ;
#134 = AXIS2_PLACEMENT_3D ( 'NONE', #170, #111, #49 ) ;
#135 = APPROVAL_ROLE ( '' ) ;
#136 = COORDINATED_UNIVERSAL_TIME_OFFSET ( 1, 0, .AHEAD. ) ;
#137 = ADVANCED_FACE ( 'NONE', ( #203, #78 ), #75, .T. ) ;
#138 = LOCAL_TIME ( 10, 45, 47.00000000000000000, #141 ) ;
#139 = PERSON_AND_ORGANIZATION_ROLE ( 'design_supplier' ) ;
#140 = AXIS2_PLACEMENT_3D ( 'NONE', #61, #222, #91 ) ;
#141 = COORDINATED_UNIVERSAL_TIME_OFFSET ( 1, 0, .AHEAD. ) ;
#142 = EDGE_LOOP ( 'NONE', ( #161 ) ) ;
#143 = TOROIDAL_SURFACE ( 'NONE', #64, 10.00000000000000000, 7.999999999999998224 ) ;
#144 = UNCERTAINTY_MEASURE_WITH_UNIT (LENGTH_MEASURE( 1.000000000000000082E-05 ), #14, 'distance_accuracy_value', 'NONE');
#145 = CARTESIAN_POINT ( 'NONE',  ( 1.990144363140586139E-13, 1.799711739194220919E-32, 57.00000000000000000 ) ) ;
#146 = CARTESIAN_POINT ( 'NONE',  ( 2.793185071074506684E-14, 2.249639673992782580E-32, 8.000000000000000000 ) ) ;
#147 = CC_DESIGN_APPROVAL ( #104, ( #208 ) ) ;
#148 = DIRECTION ( 'NONE',  ( 3.491481338843133355E-15, -1.227517819005651059E-16, 1.000000000000000000 ) ) ;
#149 = DIRECTION ( 'NONE',  ( 0.0000000000000000000, 1.000000000000000000, 0.0000000000000000000 ) ) ;
#150 = CC_DESIGN_DATE_AND_TIME_ASSIGNMENT ( #199, #42, ( #60 ) ) ;
#151 = CARTESIAN_POINT ( 'NONE',  ( 1.969195475107527212E-13, 2.999999999999995559, 56.39999999999999858 ) ) ;
#152 = AXIS2_PLACEMENT_3D ( 'NONE', #65, #112, #114 ) ;
#153 = LOCAL_TIME ( 10, 45, 47.00000000000000000, #103 ) ;
#154 = PERSON_AND_ORGANIZATION ( #207, #113 ) ;
#155 = COORDINATED_UNIVERSAL_TIME_OFFSET ( 1, 0, .AHEAD. ) ;
#156 = ADVANCED_FACE ( 'NONE', ( #9 ), #219, .T. ) ;
#157 = AXIS2_PLACEMENT_3D ( 'NONE', #11, #13, #8 ) ;
#158 = DATE_AND_TIME ( #86, #153 ) ;
#159 = DATE_TIME_ROLE ( 'creation_date' ) ;
#160 = CC_DESIGN_PERSON_AND_ORGANIZATION_ASSIGNMENT ( #117, #70, ( #208 ) ) ;
#161 = ORIENTED_EDGE ( 'NONE', *, *, #192, .F. ) ;
#162 = APPROVAL_STATUS ( 'not_yet_approved' ) ;
#163 = ORIENTED_EDGE ( 'NONE', *, *, #213, .F. ) ;
#164 = CC_DESIGN_DATE_AND_TIME_ASSIGNMENT ( #121, #159, ( #208 ) ) ;
#165 = DIRECTION ( 'NONE',  ( 3.491481338843133355E-15, -1.227517819005651059E-16, 1.000000000000000000 ) ) ;
#166 = EDGE_LOOP ( 'NONE', ( #21 ) ) ;
#167 = DIRECTION ( 'NONE',  ( -3.491481338843133355E-15, 1.224646799147353207E-16, -1.000000000000000000 ) ) ;
#168 = AXIS2_PLACEMENT_3D ( 'NONE', #146, #44, #201 ) ;
#169 = APPLICATION_CONTEXT ( 'configuration controlled 3d designs of mechanical parts and assemblies' ) ;
#170 = CARTESIAN_POINT ( 'NONE',  ( 0.0000000000000000000, 0.0000000000000000000, 0.0000000000000000000 ) ) ;
#171 = FACE_BOUND ( 'NONE', #23, .T. ) ;
#172 = CC_DESIGN_PERSON_AND_ORGANIZATION_ASSIGNMENT ( #105, #212, ( #205 ) ) ;
#173 = CARTESIAN_POINT ( 'NONE',  ( -6.413731847436034514E-31, 0.0000000000000000000, -1.836965810494968570E-16 ) ) ;
#174 = APPLICATION_PROTOCOL_DEFINITION ( 'international standard', 'config_control_design', 1994, #169 ) ;
#175 = AXIS2_PLACEMENT_3D ( 'NONE', #77, #148, #31 ) ;
#176 =( NAMED_UNIT ( * ) PLANE_ANGLE_UNIT ( ) SI_UNIT ( $, .RADIAN. ) );
#177 = DIRECTION ( 'NONE',  ( -4.285855558155655031E-31, -1.000000000000000000, -1.227517819005651059E-16 ) ) ;
#178 = CARTESIAN_POINT ( 'NONE',  ( 1.990144363140586139E-13, 2.399999999999995914, 57.00000000000000000 ) ) ;
#179 = CALENDAR_DATE ( 2021, 1, 11 ) ;
#180 = APPLICATION_CONTEXT ( 'configuration controlled 3d designs of mechanical parts and assemblies' ) ;
#181 = PRODUCT_DEFINITION_SHAPE ( 'NONE', 'NONE',  #208 ) ;
#182 = CC_DESIGN_SECURITY_CLASSIFICATION ( #60, ( #205 ) ) ;
#183 = SECURITY_CLASSIFICATION_LEVEL ( 'unclassified' ) ;
#184 = EDGE_LOOP ( 'NONE', ( #197 ) ) ;
#185 = DIRECTION ( 'NONE',  ( -4.275831445896958607E-31, -1.000000000000000000, -1.224646799147353207E-16 ) ) ;
#186 = FACE_OUTER_BOUND ( 'NONE', #218, .T. ) ;
#187 =( GEOMETRIC_REPRESENTATION_CONTEXT ( 3 ) GLOBAL_UNCERTAINTY_ASSIGNED_CONTEXT ( ( #144 ) ) GLOBAL_UNIT_ASSIGNED_CONTEXT ( ( #14, #176, #1 ) ) REPRESENTATION_CONTEXT ( 'NONE', 'WORKASPACE' ) );
#188 = DIRECTION ( 'NONE',  ( 0.0000000000000000000, 1.000000000000000000, 0.0000000000000000000 ) ) ;
#189 = EDGE_CURVE ( 'NONE', #194, #194, #57, .T. ) ;
#190 = FACE_OUTER_BOUND ( 'NONE', #102, .T. ) ;
#191 = PERSON_AND_ORGANIZATION ( #207, #113 ) ;
#192 = EDGE_CURVE ( 'NONE', #204, #204, #39, .T. ) ;
#193 = CIRCLE ( 'NONE', #152, 2.000000000000000888 ) ;
#194 = VERTEX_POINT ( 'NONE', #118 ) ;
#195 = DIRECTION ( 'NONE',  ( 0.0000000000000000000, 0.0000000000000000000, 1.000000000000000000 ) ) ;
#196 = FACE_OUTER_BOUND ( 'NONE', #166, .T. ) ;
#197 = ORIENTED_EDGE ( 'NONE', *, *, #79, .T. ) ;
#198 = ORIENTED_EDGE ( 'NONE', *, *, #66, .T. ) ;
#199 = DATE_AND_TIME ( #41, #138 ) ;
#200 = PLANE ( 'NONE',  #168 ) ;
#201 = DIRECTION ( 'NONE',  ( -4.275831445896958607E-31, -1.000000000000000000, -1.224646799147353207E-16 ) ) ;
#202 = DIRECTION ( 'NONE',  ( -3.491481338843133355E-15, 1.224646799147353207E-16, -1.000000000000000000 ) ) ;
#203 = FACE_OUTER_BOUND ( 'NONE', #26, .T. ) ;
#204 = VERTEX_POINT ( 'NONE', #151 ) ;
#205 = PRODUCT_DEFINITION_FORMATION_WITH_SPECIFIED_SOURCE ( 'ANY', '', #109, .NOT_KNOWN. ) ;
#206 = DIRECTION ( 'NONE',  ( 3.491481338843133355E-15, -1.227517819005651059E-16, 1.000000000000000000 ) ) ;
#207 = PERSON ( 'UNSPECIFIED', 'UNSPECIFIED', 'UNSPECIFIED', ('UNSPECIFIED'), ('UNSPECIFIED'), ('UNSPECIFIED') ) ;
#208 = PRODUCT_DEFINITION ( 'UNKNOWN', '', #205, #34 ) ;
#209 = CALENDAR_DATE ( 2021, 1, 11 ) ;
#210 = CARTESIAN_POINT ( 'NONE',  ( 0.0000000000000000000, 0.0000000000000000000, 0.0000000000000000000 ) ) ;
#211 = EDGE_CURVE ( 'NONE', #33, #33, #68, .T. ) ;
#212 = PERSON_AND_ORGANIZATION_ROLE ( 'creator' ) ;
#213 = EDGE_CURVE ( 'NONE', #81, #81, #45, .T. ) ;
#214 = EDGE_LOOP ( 'NONE', ( #217 ) ) ;
#215 = ADVANCED_BREP_SHAPE_REPRESENTATION ( '57180', ( #22, #25, #83 ), #187 ) ;
#216 = PERSON_AND_ORGANIZATION ( #207, #113 ) ;
#217 = ORIENTED_EDGE ( 'NONE', *, *, #211, .T. ) ;
#218 = EDGE_LOOP ( 'NONE', ( #163 ) ) ;
#219 = PLANE ( 'NONE',  #56 ) ;
#220 = CARTESIAN_POINT ( 'NONE',  ( 1.969195475107527212E-13, -6.907007947191071980E-15, 56.39999999999999858 ) ) ;
#221 = ADVANCED_FACE ( 'NONE', ( #7, #190 ), #94, .T. ) ;
#222 = DIRECTION ( 'NONE',  ( 3.491481338843133355E-15, -1.227517819005651059E-16, 1.000000000000000000 ) ) ;
#223 = AXIS2_PLACEMENT_3D ( 'NONE', #27, #167, #115 ) ;
ENDSEC;
END-ISO-10303-21;
