ISO-10303-21;
HEADER;
FILE_DESCRIPTION (( 'STEP AP203' ),
    '1' );
FILE_NAME ('57179.step',
    '2021-11-01T09:45:47',
    ( '' ),
    ( '' ),
    'SwSTEP 2.0',
    'SolidWorks 2019',
    '' );
FILE_SCHEMA (( 'CONFIG_CONTROL_DESIGN' ));
ENDSEC;

DATA;
#1 = CARTESIAN_POINT ( 'NONE',  ( 3.943240970200190237E-14, 2.999999999999999112, 11.29389100932941581 ) ) ;
#2 = PERSON_AND_ORGANIZATION ( #146, #27 ) ;
#3 = LOCAL_TIME ( 10, 45, 47.00000000000000000, #47 ) ;
#4 = APPROVAL_DATE_TIME ( #150, #91 ) ;
#5 = ORIENTED_EDGE ( 'NONE', *, *, #8, .F. ) ;
#6 = DATE_AND_TIME ( #30, #23 ) ;
#7 = DATE_TIME_ROLE ( 'classification_date' ) ;
#8 = EDGE_CURVE ( 'NONE', #129, #129, #41, .T. ) ;
#9 = CALENDAR_DATE ( 2021, 1, 11 ) ;
#10 = CARTESIAN_POINT ( 'NONE',  ( -7.500247226772389736E-31, 3.819917276719495885E-33, -2.148156183259887997E-16 ) ) ;
#11 = LOCAL_TIME ( 10, 45, 47.00000000000000000, #130 ) ;
#12 = DIRECTION ( 'NONE',  ( -3.491481338843133355E-15, 1.224646799147353207E-16, -1.000000000000000000 ) ) ;
#13 = DIRECTION ( 'NONE',  ( 0.0000000000000000000, 1.000000000000000000, 0.0000000000000000000 ) ) ;
#14 = AXIS2_PLACEMENT_3D ( 'NONE', #109, #127, #16 ) ;
#15 = MANIFOLD_SOLID_BREP ( 'Corps-Déplacer/Copier1[2]', #125 ) ;
#16 = DIRECTION ( 'NONE',  ( -4.285855558155652404E-31, -1.000000000000000000, -1.227517819005650812E-16 ) ) ;
#17 = AXIS2_PLACEMENT_3D ( 'NONE', #166, #22, #111 ) ;
#18 = CALENDAR_DATE ( 2021, 1, 11 ) ;
#19 = VERTEX_POINT ( 'NONE', #82 ) ;
#20 = CARTESIAN_POINT ( 'NONE',  ( 0.0000000000000000000, 0.0000000000000000000, 0.0000000000000000000 ) ) ;
#21 = PRODUCT ( '57179', '57179', '', ( #149 ) ) ;
#22 = DIRECTION ( 'NONE',  ( -3.491481338843133355E-15, 1.224646799147353207E-16, -1.000000000000000000 ) ) ;
#23 = LOCAL_TIME ( 10, 45, 47.00000000000000000, #67 ) ;
#24 = APPROVAL_ROLE ( '' ) ;
#25 = ORIENTED_EDGE ( 'NONE', *, *, #128, .F. ) ;
#26 = CONICAL_SURFACE ( 'NONE', #59, 2.400000000000003020, 0.7853981633974453924 ) ;
#27 = ORGANIZATION ( 'UNSPECIFIED', 'UNSPECIFIED', '' ) ;
#28 = DATE_AND_TIME ( #9, #3 ) ;
#29 = UNCERTAINTY_MEASURE_WITH_UNIT (LENGTH_MEASURE( 1.000000000000000082E-05 ), #43, 'distance_accuracy_value', 'NONE');
#30 = CALENDAR_DATE ( 2021, 1, 11 ) ;
#31 = FACE_OUTER_BOUND ( 'NONE', #135, .T. ) ;
#32 = CIRCLE ( 'NONE', #198, 2.999999999999999556 ) ;
#33 = CARTESIAN_POINT ( 'NONE',  ( 2.444036937190193349E-14, 2.249639673992782580E-32, 7.000000000000000000 ) ) ;
#34 = CC_DESIGN_DATE_AND_TIME_ASSIGNMENT ( #102, #39, ( #213 ) ) ;
#35 = FACE_OUTER_BOUND ( 'NONE', #68, .T. ) ;
#36 = CYLINDRICAL_SURFACE ( 'NONE', #90, 2.999999999999999556 ) ;
#37 = CYLINDRICAL_SURFACE ( 'NONE', #14, 1.749999999999999778 ) ;
#38 = EDGE_CURVE ( 'NONE', #200, #200, #32, .T. ) ;
#39 = DATE_TIME_ROLE ( 'creation_date' ) ;
#40 = APPLICATION_PROTOCOL_DEFINITION ( 'international standard', 'config_control_design', 1994, #48 ) ;
#41 = CIRCLE ( 'NONE', #72, 1.749999999999998890 ) ;
#42 = CALENDAR_DATE ( 2021, 1, 11 ) ;
#43 =( LENGTH_UNIT ( ) NAMED_UNIT ( * ) SI_UNIT ( .MILLI., .METRE. ) );
#44 = APPROVAL_ROLE ( '' ) ;
#45 = AXIS2_PLACEMENT_3D ( 'NONE', #20, #101, #78 ) ;
#46 = CC_DESIGN_PERSON_AND_ORGANIZATION_ASSIGNMENT ( #99, #113, ( #213 ) ) ;
#47 = COORDINATED_UNIVERSAL_TIME_OFFSET ( 1, 0, .AHEAD. ) ;
#48 = APPLICATION_CONTEXT ( 'configuration controlled 3d designs of mechanical parts and assemblies' ) ;
#49 = CIRCLE ( 'NONE', #114, 3.000000000000002665 ) ;
#50 = ORIENTED_EDGE ( 'NONE', *, *, #57, .T. ) ;
#51 = CARTESIAN_POINT ( 'NONE',  ( 3.943240970200190237E-14, -5.270827726820019170E-16, 11.29389100932941581 ) ) ;
#52 = DIRECTION ( 'NONE',  ( 0.0000000000000000000, 1.000000000000000000, 0.0000000000000000000 ) ) ;
#53 = FACE_OUTER_BOUND ( 'NONE', #65, .T. ) ;
#54 = DIRECTION ( 'NONE',  ( -3.491481338843133355E-15, 1.224646799147353207E-16, -1.000000000000000000 ) ) ;
#55 = DIRECTION ( 'NONE',  ( -3.491481338843133355E-15, 1.227517819005651059E-16, -1.000000000000000000 ) ) ;
#56 = DIRECTION ( 'NONE',  ( -4.275831445896958607E-31, -1.000000000000000000, -1.224646799147353207E-16 ) ) ;
#57 = EDGE_CURVE ( 'NONE', #167, #167, #131, .T. ) ;
#58 = DESIGN_CONTEXT ( 'detailed design', #48, 'design' ) ;
#59 = AXIS2_PLACEMENT_3D ( 'NONE', #193, #12, #13 ) ;
#60 = ADVANCED_BREP_SHAPE_REPRESENTATION ( '57179', ( #172, #15, #45 ), #165 ) ;
#61 = APPROVAL_STATUS ( 'not_yet_approved' ) ;
#62 = PERSON_AND_ORGANIZATION ( #146, #27 ) ;
#63 = ADVANCED_FACE ( 'NONE', ( #139 ), #71, .F. ) ;
#64 = PERSON_AND_ORGANIZATION ( #146, #27 ) ;
#65 = EDGE_LOOP ( 'NONE', ( #153 ) ) ;
#66 = PRODUCT_RELATED_PRODUCT_CATEGORY ( 'detail', '', ( #21 ) ) ;
#67 = COORDINATED_UNIVERSAL_TIME_OFFSET ( 1, 0, .AHEAD. ) ;
#68 = EDGE_LOOP ( 'NONE', ( #50 ) ) ;
#69 = EDGE_LOOP ( 'NONE', ( #5 ) ) ;
#70 = DIRECTION ( 'NONE',  ( 3.491481338843133355E-15, -1.227517819005651059E-16, 1.000000000000000000 ) ) ;
#71 = PLANE ( 'NONE',  #103 ) ;
#72 = AXIS2_PLACEMENT_3D ( 'NONE', #10, #70, #203 ) ;
#73 = DIRECTION ( 'NONE',  ( -4.275831445896958607E-31, -1.000000000000000000, -1.224646799147353207E-16 ) ) ;
#74 = ADVANCED_FACE ( 'NONE', ( #191, #75 ), #26, .T. ) ;
#75 = FACE_BOUND ( 'NONE', #84, .T. ) ;
#76 = SECURITY_CLASSIFICATION ( '', '', #85 ) ;
#77 = CALENDAR_DATE ( 2021, 1, 11 ) ;
#78 = DIRECTION ( 'NONE',  ( 1.000000000000000000, 0.0000000000000000000, 0.0000000000000000000 ) ) ;
#79 =( NAMED_UNIT ( * ) SI_UNIT ( $, .STERADIAN. ) SOLID_ANGLE_UNIT ( ) );
#80 = VERTEX_POINT ( 'NONE', #182 ) ;
#81 = ADVANCED_FACE ( 'NONE', ( #222 ), #210, .T. ) ;
#82 = CARTESIAN_POINT ( 'NONE',  ( 1.969195475107527212E-13, 2.999999999999995559, 56.39999999999999858 ) ) ;
#83 = APPROVAL_DATE_TIME ( #6, #147 ) ;
#84 = EDGE_LOOP ( 'NONE', ( #115 ) ) ;
#85 = SECURITY_CLASSIFICATION_LEVEL ( 'unclassified' ) ;
#86 = CC_DESIGN_APPROVAL ( #94, ( #199 ) ) ;
#87 = SHAPE_DEFINITION_REPRESENTATION ( #100, #60 ) ;
#88 = PERSON_AND_ORGANIZATION ( #146, #27 ) ;
#89 = EDGE_LOOP ( 'NONE', ( #25 ) ) ;
#90 = AXIS2_PLACEMENT_3D ( 'NONE', #107, #54, #162 ) ;
#91 = APPROVAL ( #61, 'UNSPECIFIED' ) ;
#92 = DIRECTION ( 'NONE',  ( 0.0000000000000000000, -1.000000000000000000, 0.0000000000000000000 ) ) ;
#93 = CARTESIAN_POINT ( 'NONE',  ( 2.444036937190193033E-14, -8.592624733039555931E-16, 6.999999999999999112 ) ) ;
#94 = APPROVAL ( #110, 'UNSPECIFIED' ) ;
#95 = AXIS2_PLACEMENT_3D ( 'NONE', #205, #106, #92 ) ;
#96 = CARTESIAN_POINT ( 'NONE',  ( 2.444036937190193033E-14, 0.0000000000000000000, 6.999999999999999112 ) ) ;
#97 = DIRECTION ( 'NONE',  ( 3.491481338843133355E-15, -1.227517819005651059E-16, 1.000000000000000000 ) ) ;
#98 = COORDINATED_UNIVERSAL_TIME_OFFSET ( 1, 0, .AHEAD. ) ;
#99 = PERSON_AND_ORGANIZATION ( #146, #27 ) ;
#100 = PRODUCT_DEFINITION_SHAPE ( 'NONE', 'NONE',  #213 ) ;
#101 = DIRECTION ( 'NONE',  ( 0.0000000000000000000, 0.0000000000000000000, 1.000000000000000000 ) ) ;
#102 = DATE_AND_TIME ( #42, #134 ) ;
#103 = AXIS2_PLACEMENT_3D ( 'NONE', #206, #159, #141 ) ;
#104 = EDGE_LOOP ( 'NONE', ( #152 ) ) ;
#105 = EDGE_CURVE ( 'NONE', #183, #183, #154, .T. ) ;
#106 = DIRECTION ( 'NONE',  ( 3.491481338843133355E-15, -1.227517819005651059E-16, 1.000000000000000000 ) ) ;
#107 = CARTESIAN_POINT ( 'NONE',  ( 0.0000000000000000000, 0.0000000000000000000, 0.0000000000000000000 ) ) ;
#108 = LOCAL_TIME ( 10, 45, 47.00000000000000000, #98 ) ;
#109 = CARTESIAN_POINT ( 'NONE',  ( -6.413731847436034514E-31, 0.0000000000000000000, -1.836965810494968570E-16 ) ) ;
#110 = APPROVAL_STATUS ( 'not_yet_approved' ) ;
#111 = DIRECTION ( 'NONE',  ( 4.275831445896958607E-31, 1.000000000000000000, 1.224646799147353207E-16 ) ) ;
#112 =( NAMED_UNIT ( * ) PLANE_ANGLE_UNIT ( ) SI_UNIT ( $, .RADIAN. ) );
#113 = PERSON_AND_ORGANIZATION_ROLE ( 'creator' ) ;
#114 = AXIS2_PLACEMENT_3D ( 'NONE', #143, #179, #220 ) ;
#115 = ORIENTED_EDGE ( 'NONE', *, *, #128, .T. ) ;
#116 = EDGE_LOOP ( 'NONE', ( #155 ) ) ;
#117 = PERSON_AND_ORGANIZATION ( #146, #27 ) ;
#118 = AXIS2_PLACEMENT_3D ( 'NONE', #33, #156, #56 ) ;
#119 = ORIENTED_EDGE ( 'NONE', *, *, #38, .F. ) ;
#120 = ADVANCED_FACE ( 'NONE', ( #157, #31 ), #36, .T. ) ;
#121 = FACE_OUTER_BOUND ( 'NONE', #89, .T. ) ;
#122 = AXIS2_PLACEMENT_3D ( 'NONE', #138, #142, #52 ) ;
#123 = DIRECTION ( 'NONE',  ( 3.491481338843133355E-15, -1.227517819005651059E-16, 1.000000000000000000 ) ) ;
#124 = DIRECTION ( 'NONE',  ( 0.0000000000000000000, -1.000000000000000000, 0.0000000000000000000 ) ) ;
#125 = CLOSED_SHELL ( 'NONE', ( #81, #196, #63 ) ) ;
#126 = APPROVAL_PERSON_ORGANIZATION ( #169, #94, #180 ) ;
#127 = DIRECTION ( 'NONE',  ( 3.491481338843133355E-15, -1.227517819005651059E-16, 1.000000000000000000 ) ) ;
#128 = EDGE_CURVE ( 'NONE', #80, #80, #185, .T. ) ;
#129 = VERTEX_POINT ( 'NONE', #195 ) ;
#130 = COORDINATED_UNIVERSAL_TIME_OFFSET ( 1, 0, .AHEAD. ) ;
#131 = CIRCLE ( 'NONE', #164, 1.750000000000000666 ) ;
#132 = CLOSED_SHELL ( 'NONE', ( #120, #74, #218, #151, #188 ) ) ;
#133 = APPROVAL_STATUS ( 'not_yet_approved' ) ;
#134 = LOCAL_TIME ( 10, 45, 47.00000000000000000, #184 ) ;
#135 = EDGE_LOOP ( 'NONE', ( #119 ) ) ;
#136 = PERSON_AND_ORGANIZATION_ROLE ( 'classification_officer' ) ;
#137 = EDGE_LOOP ( 'NONE', ( #173 ) ) ;
#138 = CARTESIAN_POINT ( 'NONE',  ( 1.990144363140586139E-13, -6.980486755139912911E-15, 57.00000000000000000 ) ) ;
#139 = FACE_OUTER_BOUND ( 'NONE', #69, .T. ) ;
#140 = APPROVAL_PERSON_ORGANIZATION ( #88, #147, #24 ) ;
#141 = DIRECTION ( 'NONE',  ( -4.275831445896958607E-31, -1.000000000000000000, -1.224646799147353207E-16 ) ) ;
#142 = DIRECTION ( 'NONE',  ( -3.491481338843133355E-15, 1.224646799147353207E-16, -1.000000000000000000 ) ) ;
#143 = CARTESIAN_POINT ( 'NONE',  ( 1.969195475107527212E-13, -6.907007947191071980E-15, 56.39999999999999858 ) ) ;
#144 = CC_DESIGN_PERSON_AND_ORGANIZATION_ASSIGNMENT ( #64, #186, ( #199 ) ) ;
#145 = CC_DESIGN_APPROVAL ( #147, ( #76 ) ) ;
#146 = PERSON ( 'UNSPECIFIED', 'UNSPECIFIED', 'UNSPECIFIED', ('UNSPECIFIED'), ('UNSPECIFIED'), ('UNSPECIFIED') ) ;
#147 = APPROVAL ( #133, 'UNSPECIFIED' ) ;
#148 = CC_DESIGN_SECURITY_CLASSIFICATION ( #76, ( #199 ) ) ;
#149 = MECHANICAL_CONTEXT ( 'NONE', #207, 'mechanical' ) ;
#150 = DATE_AND_TIME ( #18, #11 ) ;
#151 = ADVANCED_FACE ( 'NONE', ( #35, #53 ), #177, .F. ) ;
#152 = ORIENTED_EDGE ( 'NONE', *, *, #8, .T. ) ;
#153 = ORIENTED_EDGE ( 'NONE', *, *, #38, .T. ) ;
#154 = CIRCLE ( 'NONE', #95, 1.750000000000000666 ) ;
#155 = ORIENTED_EDGE ( 'NONE', *, *, #105, .F. ) ;
#156 = DIRECTION ( 'NONE',  ( 3.491481338843133355E-15, -1.224646799147353207E-16, 1.000000000000000000 ) ) ;
#157 = FACE_OUTER_BOUND ( 'NONE', #137, .T. ) ;
#158 = CC_DESIGN_PERSON_AND_ORGANIZATION_ASSIGNMENT ( #190, #187, ( #199 ) ) ;
#159 = DIRECTION ( 'NONE',  ( 3.491481338843133355E-15, -1.224646799147353207E-16, 1.000000000000000000 ) ) ;
#160 = DIRECTION ( 'NONE',  ( 3.491481338843133355E-15, -1.224646799147353207E-16, 1.000000000000000000 ) ) ;
#161 = CC_DESIGN_DATE_AND_TIME_ASSIGNMENT ( #28, #7, ( #76 ) ) ;
#162 = DIRECTION ( 'NONE',  ( 4.275831445896959482E-31, 1.000000000000000000, 1.224646799147353207E-16 ) ) ;
#163 = DATE_AND_TIME ( #77, #108 ) ;
#164 = AXIS2_PLACEMENT_3D ( 'NONE', #93, #97, #124 ) ;
#165 =( GEOMETRIC_REPRESENTATION_CONTEXT ( 3 ) GLOBAL_UNCERTAINTY_ASSIGNED_CONTEXT ( ( #29 ) ) GLOBAL_UNIT_ASSIGNED_CONTEXT ( ( #43, #112, #79 ) ) REPRESENTATION_CONTEXT ( 'NONE', 'WORKASPACE' ) );
#166 = CARTESIAN_POINT ( 'NONE',  ( 1.990144363140586139E-13, 1.799711739194220919E-32, 57.00000000000000000 ) ) ;
#167 = VERTEX_POINT ( 'NONE', #214 ) ;
#168 = APPLICATION_PROTOCOL_DEFINITION ( 'international standard', 'config_control_design', 1994, #207 ) ;
#169 = PERSON_AND_ORGANIZATION ( #146, #27 ) ;
#170 = APPROVAL_DATE_TIME ( #163, #94 ) ;
#171 = ORIENTED_EDGE ( 'NONE', *, *, #201, .F. ) ;
#172 = MANIFOLD_SOLID_BREP ( 'Corps-Déplacer/Copier1[1]', #132 ) ;
#173 = ORIENTED_EDGE ( 'NONE', *, *, #201, .T. ) ;
#174 = CC_DESIGN_APPROVAL ( #91, ( #213 ) ) ;
#175 = PLANE ( 'NONE',  #17 ) ;
#176 = PLANE ( 'NONE',  #118 ) ;
#177 = TOROIDAL_SURFACE ( 'NONE', #211, 9.750000000000000000, 8.000000000000000000 ) ;
#178 = CC_DESIGN_PERSON_AND_ORGANIZATION_ASSIGNMENT ( #117, #136, ( #76 ) ) ;
#179 = DIRECTION ( 'NONE',  ( -3.491481338843133355E-15, 1.224646799147353207E-16, -1.000000000000000000 ) ) ;
#180 = APPROVAL_ROLE ( '' ) ;
#181 = APPROVAL_PERSON_ORGANIZATION ( #62, #91, #44 ) ;
#182 = CARTESIAN_POINT ( 'NONE',  ( 1.990144363140586139E-13, 2.399999999999995914, 57.00000000000000000 ) ) ;
#183 = VERTEX_POINT ( 'NONE', #197 ) ;
#184 = COORDINATED_UNIVERSAL_TIME_OFFSET ( 1, 0, .AHEAD. ) ;
#185 = CIRCLE ( 'NONE', #122, 2.400000000000003020 ) ;
#186 = PERSON_AND_ORGANIZATION_ROLE ( 'design_supplier' ) ;
#187 = PERSON_AND_ORGANIZATION_ROLE ( 'creator' ) ;
#188 = ADVANCED_FACE ( 'NONE', ( #192 ), #176, .F. ) ;
#189 = AXIS2_PLACEMENT_3D ( 'NONE', #208, #160, #73 ) ;
#190 = PERSON_AND_ORGANIZATION ( #146, #27 ) ;
#191 = FACE_OUTER_BOUND ( 'NONE', #202, .T. ) ;
#192 = FACE_OUTER_BOUND ( 'NONE', #219, .T. ) ;
#193 = CARTESIAN_POINT ( 'NONE',  ( 1.990144363140586139E-13, -6.980486755139912911E-15, 57.00000000000000000 ) ) ;
#194 = FACE_OUTER_BOUND ( 'NONE', #116, .T. ) ;
#195 = CARTESIAN_POINT ( 'NONE',  ( -1.500049445354477772E-30, -1.749999999999998890, -4.296312366519775993E-16 ) ) ;
#196 = ADVANCED_FACE ( 'NONE', ( #209, #194 ), #37, .T. ) ;
#197 = CARTESIAN_POINT ( 'NONE',  ( 2.444036937190193033E-14, -1.750000000000001554, 6.999999999999999112 ) ) ;
#198 = AXIS2_PLACEMENT_3D ( 'NONE', #51, #55, #221 ) ;
#199 = PRODUCT_DEFINITION_FORMATION_WITH_SPECIFIED_SOURCE ( 'ANY', '', #21, .NOT_KNOWN. ) ;
#200 = VERTEX_POINT ( 'NONE', #1 ) ;
#201 = EDGE_CURVE ( 'NONE', #19, #19, #49, .T. ) ;
#202 = EDGE_LOOP ( 'NONE', ( #171 ) ) ;
#203 = DIRECTION ( 'NONE',  ( -4.285855558155653280E-31, -1.000000000000000000, -1.227517819005651059E-16 ) ) ;
#204 = CC_DESIGN_PERSON_AND_ORGANIZATION_ASSIGNMENT ( #2, #212, ( #21 ) ) ;
#205 = CARTESIAN_POINT ( 'NONE',  ( 2.444036937190193033E-14, -8.592624733039555931E-16, 6.999999999999999112 ) ) ;
#206 = CARTESIAN_POINT ( 'NONE',  ( -3.206816838010677856E-31, 1.124799933034399755E-32, -9.184688465421452921E-17 ) ) ;
#207 = APPLICATION_CONTEXT ( 'configuration controlled 3d designs of mechanical parts and assemblies' ) ;
#208 = CARTESIAN_POINT ( 'NONE',  ( 2.444036937190193349E-14, 2.249639673992782580E-32, 7.000000000000000000 ) ) ;
#209 = FACE_OUTER_BOUND ( 'NONE', #104, .T. ) ;
#210 = PLANE ( 'NONE',  #189 ) ;
#211 = AXIS2_PLACEMENT_3D ( 'NONE', #96, #123, #223 ) ;
#212 = PERSON_AND_ORGANIZATION_ROLE ( 'design_owner' ) ;
#213 = PRODUCT_DEFINITION ( 'UNKNOWN', '', #199, #58 ) ;
#214 = CARTESIAN_POINT ( 'NONE',  ( 2.444036937190193033E-14, -1.750000000000001554, 6.999999999999999112 ) ) ;
#215 = EDGE_LOOP ( 'NONE', ( #217 ) ) ;
#216 = ORIENTED_EDGE ( 'NONE', *, *, #57, .F. ) ;
#217 = ORIENTED_EDGE ( 'NONE', *, *, #105, .T. ) ;
#218 = ADVANCED_FACE ( 'NONE', ( #121 ), #175, .F. ) ;
#219 = EDGE_LOOP ( 'NONE', ( #216 ) ) ;
#220 = DIRECTION ( 'NONE',  ( 0.0000000000000000000, 1.000000000000000000, 0.0000000000000000000 ) ) ;
#221 = DIRECTION ( 'NONE',  ( 0.0000000000000000000, 1.000000000000000000, 0.0000000000000000000 ) ) ;
#222 = FACE_OUTER_BOUND ( 'NONE', #215, .T. ) ;
#223 = DIRECTION ( 'NONE',  ( -2.639570406268318432E-31, -1.000000000000000000, -1.227517819005651059E-16 ) ) ;
ENDSEC;
END-ISO-10303-21;
