ISO-10303-21;
HEADER;
FILE_DESCRIPTION (( 'STEP AP203' ),
    '1' );
FILE_NAME ('57178.step',
    '2021-11-01T09:45:46',
    ( '' ),
    ( '' ),
    'SwSTEP 2.0',
    'SolidWorks 2019',
    '' );
FILE_SCHEMA (( 'CONFIG_CONTROL_DESIGN' ));
ENDSEC;

DATA;
#1 = CARTESIAN_POINT ( 'NONE',  ( 1.396592535537253342E-14, 1.124819836996387869E-32, 4.000000000000000000 ) ) ;
#2 = FACE_OUTER_BOUND ( 'NONE', #161, .T. ) ;
#3 = CARTESIAN_POINT ( 'NONE',  ( 1.326762908760390423E-13, 8.998558695971062171E-33, 38.00000000000000000 ) ) ;
#4 = APPROVAL_PERSON_ORGANIZATION ( #181, #24, #32 ) ;
#5 = APPROVAL ( #182, 'UNSPECIFIED' ) ;
#6 = DIRECTION ( 'NONE',  ( 1.000000000000000000, 0.0000000000000000000, 0.0000000000000000000 ) ) ;
#7 = CARTESIAN_POINT ( 'NONE',  ( 1.326762908760390423E-13, 1.199999999999993294, 38.00000000000000000 ) ) ;
#8 = PERSON ( 'UNSPECIFIED', 'UNSPECIFIED', 'UNSPECIFIED', ('UNSPECIFIED'), ('UNSPECIFIED'), ('UNSPECIFIED') ) ;
#9 = FACE_OUTER_BOUND ( 'NONE', #103, .T. ) ;
#10 = PERSON_AND_ORGANIZATION ( #8, #157 ) ;
#11 = ADVANCED_FACE ( 'NONE', ( #53, #223 ), #221, .T. ) ;
#12 = ORIENTED_EDGE ( 'NONE', *, *, #26, .T. ) ;
#13 = ORIENTED_EDGE ( 'NONE', *, *, #134, .F. ) ;
#14 = CLOSED_SHELL ( 'NONE', ( #66, #194, #211 ) ) ;
#15 = CC_DESIGN_APPROVAL ( #132, ( #135 ) ) ;
#16 = AXIS2_PLACEMENT_3D ( 'NONE', #144, #48, #69 ) ;
#17 = DIRECTION ( 'NONE',  ( -3.491481338843133355E-15, 1.224646799147353207E-16, -1.000000000000000000 ) ) ;
#18 = CARTESIAN_POINT ( 'NONE',  ( 1.316288464743861212E-13, -4.616918432785521081E-15, 37.69999999999999574 ) ) ;
#19 = DIRECTION ( 'NONE',  ( -3.491481338843133355E-15, 1.224646799147353207E-16, -1.000000000000000000 ) ) ;
#20 = DIRECTION ( 'NONE',  ( -3.491481338843133355E-15, 1.227517819005651059E-16, -1.000000000000000000 ) ) ;
#21 = PERSON_AND_ORGANIZATION_ROLE ( 'creator' ) ;
#22 = PERSON_AND_ORGANIZATION ( #8, #157 ) ;
#23 = CARTESIAN_POINT ( 'NONE',  ( 0.0000000000000000000, 0.0000000000000000000, 0.0000000000000000000 ) ) ;
#24 = APPROVAL ( #136, 'UNSPECIFIED' ) ;
#25 = CALENDAR_DATE ( 2021, 1, 11 ) ;
#26 = EDGE_CURVE ( 'NONE', #111, #111, #197, .T. ) ;
#27 = COORDINATED_UNIVERSAL_TIME_OFFSET ( 1, 0, .AHEAD. ) ;
#28 = ORIENTED_EDGE ( 'NONE', *, *, #134, .T. ) ;
#29 = APPROVAL_ROLE ( '' ) ;
#30 = ORIENTED_EDGE ( 'NONE', *, *, #143, .F. ) ;
#31 = LOCAL_TIME ( 10, 45, 46.00000000000000000, #201 ) ;
#32 = APPROVAL_ROLE ( '' ) ;
#33 = CC_DESIGN_DATE_AND_TIME_ASSIGNMENT ( #214, #57, ( #74 ) ) ;
#34 = FACE_OUTER_BOUND ( 'NONE', #200, .T. ) ;
#35 = CIRCLE ( 'NONE', #104, 0.9499999999999999556 ) ;
#36 = ORIENTED_EDGE ( 'NONE', *, *, #26, .F. ) ;
#37 = PLANE ( 'NONE',  #153 ) ;
#38 = PLANE ( 'NONE',  #89 ) ;
#39 = CARTESIAN_POINT ( 'NONE',  ( 1.396592535537253027E-14, 0.0000000000000000000, 3.999999999999999112 ) ) ;
#40 = APPLICATION_PROTOCOL_DEFINITION ( 'international standard', 'config_control_design', 1994, #68 ) ;
#41 = APPROVAL_ROLE ( '' ) ;
#42 = VERTEX_POINT ( 'NONE', #96 ) ;
#43 = ADVANCED_BREP_SHAPE_REPRESENTATION ( '57178', ( #92, #97, #94 ), #218 ) ;
#44 = ORIENTED_EDGE ( 'NONE', *, *, #170, .T. ) ;
#45 = LOCAL_TIME ( 10, 45, 46.00000000000000000, #117 ) ;
#46 = CALENDAR_DATE ( 2021, 1, 11 ) ;
#47 = ADVANCED_FACE ( 'NONE', ( #142, #158 ), #177, .F. ) ;
#48 = DIRECTION ( 'NONE',  ( -3.491481338843133355E-15, 1.224646799147353207E-16, -1.000000000000000000 ) ) ;
#49 = CC_DESIGN_PERSON_AND_ORGANIZATION_ASSIGNMENT ( #10, #101, ( #77 ) ) ;
#50 = FACE_OUTER_BOUND ( 'NONE', #202, .T. ) ;
#51 = CLOSED_SHELL ( 'NONE', ( #125, #11, #64, #47, #80 ) ) ;
#52 = EDGE_LOOP ( 'NONE', ( #159 ) ) ;
#53 = FACE_OUTER_BOUND ( 'NONE', #79, .T. ) ;
#54 = DIRECTION ( 'NONE',  ( 3.491481338843133355E-15, -1.227517819005651059E-16, 1.000000000000000000 ) ) ;
#55 = CIRCLE ( 'NONE', #204, 1.499999999999997558 ) ;
#56 = MECHANICAL_CONTEXT ( 'NONE', #174, 'mechanical' ) ;
#57 = DATE_TIME_ROLE ( 'creation_date' ) ;
#58 = CC_DESIGN_PERSON_AND_ORGANIZATION_ASSIGNMENT ( #62, #184, ( #77 ) ) ;
#59 = CARTESIAN_POINT ( 'NONE',  ( -8.143125560495735626E-31, -0.9499999999999995115, -2.332283856110735877E-16 ) ) ;
#60 = PERSON_AND_ORGANIZATION ( #8, #157 ) ;
#61 =( NAMED_UNIT ( * ) PLANE_ANGLE_UNIT ( ) SI_UNIT ( $, .RADIAN. ) );
#62 = PERSON_AND_ORGANIZATION ( #8, #157 ) ;
#63 = EDGE_LOOP ( 'NONE', ( #12 ) ) ;
#64 = ADVANCED_FACE ( 'NONE', ( #121 ), #38, .F. ) ;
#65 = APPROVAL_DATE_TIME ( #85, #132 ) ;
#66 = ADVANCED_FACE ( 'NONE', ( #2 ), #37, .T. ) ;
#67 = DIRECTION ( 'NONE',  ( 3.491481338843133355E-15, -1.227517819005651059E-16, 1.000000000000000000 ) ) ;
#68 = APPLICATION_CONTEXT ( 'configuration controlled 3d designs of mechanical parts and assemblies' ) ;
#69 = DIRECTION ( 'NONE',  ( 0.0000000000000000000, 1.000000000000000000, 0.0000000000000000000 ) ) ;
#70 = DIRECTION ( 'NONE',  ( -3.491481338843133355E-15, 1.224646799147353207E-16, -1.000000000000000000 ) ) ;
#71 = CARTESIAN_POINT ( 'NONE',  ( 1.396592535537253027E-14, -4.910071276022603248E-16, 3.999999999999999112 ) ) ;
#72 = EDGE_LOOP ( 'NONE', ( #137 ) ) ;
#73 =( LENGTH_UNIT ( ) NAMED_UNIT ( * ) SI_UNIT ( .MILLI., .METRE. ) );
#74 = PRODUCT_DEFINITION ( 'UNKNOWN', '', #77, #114 ) ;
#75 = AXIS2_PLACEMENT_3D ( 'NONE', #210, #107, #188 ) ;
#76 = CC_DESIGN_APPROVAL ( #5, ( #74 ) ) ;
#77 = PRODUCT_DEFINITION_FORMATION_WITH_SPECIFIED_SOURCE ( 'ANY', '', #203, .NOT_KNOWN. ) ;
#78 = PERSON_AND_ORGANIZATION ( #8, #157 ) ;
#79 = EDGE_LOOP ( 'NONE', ( #152 ) ) ;
#80 = ADVANCED_FACE ( 'NONE', ( #34 ), #173, .F. ) ;
#81 = DATE_AND_TIME ( #46, #122 ) ;
#82 = PRODUCT_RELATED_PRODUCT_CATEGORY ( 'detail', '', ( #203 ) ) ;
#83 = PERSON_AND_ORGANIZATION ( #8, #157 ) ;
#84 = EDGE_CURVE ( 'NONE', #147, #147, #35, .T. ) ;
#85 = DATE_AND_TIME ( #186, #45 ) ;
#86 = DIRECTION ( 'NONE',  ( -4.348522919579275296E-31, -1.000000000000000000, -1.227517819005651059E-16 ) ) ;
#87 = DIRECTION ( 'NONE',  ( -3.491481338843133355E-15, 1.224646799147353207E-16, -1.000000000000000000 ) ) ;
#88 = DIRECTION ( 'NONE',  ( 4.275831445896958607E-31, 1.000000000000000000, 1.224646799147353207E-16 ) ) ;
#89 = AXIS2_PLACEMENT_3D ( 'NONE', #3, #17, #88 ) ;
#90 = APPROVAL_PERSON_ORGANIZATION ( #78, #132, #29 ) ;
#91 = FACE_OUTER_BOUND ( 'NONE', #52, .T. ) ;
#92 = MANIFOLD_SOLID_BREP ( 'Corps-Déplacer/Copier1[1]', #51 ) ;
#93 = CARTESIAN_POINT ( 'NONE',  ( 2.414375814928372891E-14, 1.499999999999995337, 6.915047169429671570 ) ) ;
#94 = AXIS2_PLACEMENT_3D ( 'NONE', #23, #162, #6 ) ;
#95 = CARTESIAN_POINT ( 'NONE',  ( 1.396592535537253027E-14, -0.9500000000000005107, 3.999999999999999112 ) ) ;
#96 = CARTESIAN_POINT ( 'NONE',  ( 1.396592535537253027E-14, -0.9500000000000005107, 3.999999999999999112 ) ) ;
#97 = MANIFOLD_SOLID_BREP ( 'Corps-Déplacer/Copier1[2]', #14 ) ;
#98 = CARTESIAN_POINT ( 'NONE',  ( 1.316288464743861212E-13, 1.499999999999993117, 37.69999999999999574 ) ) ;
#99 = AXIS2_PLACEMENT_3D ( 'NONE', #106, #87, #141 ) ;
#100 = LOCAL_TIME ( 10, 45, 46.00000000000000000, #113 ) ;
#101 = PERSON_AND_ORGANIZATION_ROLE ( 'creator' ) ;
#102 = EDGE_LOOP ( 'NONE', ( #120 ) ) ;
#103 = EDGE_LOOP ( 'NONE', ( #36 ) ) ;
#104 = AXIS2_PLACEMENT_3D ( 'NONE', #71, #67, #178 ) ;
#105 = APPROVAL_DATE_TIME ( #219, #24 ) ;
#106 = CARTESIAN_POINT ( 'NONE',  ( 1.326762908760390423E-13, -4.653657836759941941E-15, 38.00000000000000000 ) ) ;
#107 = DIRECTION ( 'NONE',  ( 3.491481338843133355E-15, -1.227517819005651059E-16, 1.000000000000000000 ) ) ;
#108 = CARTESIAN_POINT ( 'NONE',  ( 1.396592535537253342E-14, 1.124819836996387869E-32, 4.000000000000000000 ) ) ;
#109 = CIRCLE ( 'NONE', #167, 0.9499999999999999556 ) ;
#110 = DIRECTION ( 'NONE',  ( 3.491481338843133355E-15, -1.227517819005651059E-16, 1.000000000000000000 ) ) ;
#111 = VERTEX_POINT ( 'NONE', #59 ) ;
#112 = DIRECTION ( 'NONE',  ( 3.491481338843133355E-15, -1.224646799147353207E-16, 1.000000000000000000 ) ) ;
#113 = COORDINATED_UNIVERSAL_TIME_OFFSET ( 1, 0, .AHEAD. ) ;
#114 = DESIGN_CONTEXT ( 'detailed design', #68, 'design' ) ;
#115 = PLANE ( 'NONE',  #145 ) ;
#116 = CC_DESIGN_PERSON_AND_ORGANIZATION_ASSIGNMENT ( #131, #216, ( #203 ) ) ;
#117 = COORDINATED_UNIVERSAL_TIME_OFFSET ( 1, 0, .AHEAD. ) ;
#118 = APPROVAL_STATUS ( 'not_yet_approved' ) ;
#119 = CC_DESIGN_PERSON_AND_ORGANIZATION_ASSIGNMENT ( #22, #21, ( #74 ) ) ;
#120 = ORIENTED_EDGE ( 'NONE', *, *, #84, .T. ) ;
#121 = FACE_OUTER_BOUND ( 'NONE', #185, .T. ) ;
#122 = LOCAL_TIME ( 10, 45, 46.00000000000000000, #27 ) ;
#123 = DIRECTION ( 'NONE',  ( 3.491481338843133355E-15, -1.224646799147353207E-16, 1.000000000000000000 ) ) ;
#124 = CARTESIAN_POINT ( 'NONE',  ( 0.0000000000000000000, 0.0000000000000000000, 0.0000000000000000000 ) ) ;
#125 = ADVANCED_FACE ( 'NONE', ( #91, #191 ), #207, .T. ) ;
#126 = CARTESIAN_POINT ( 'NONE',  ( 2.414375814928372891E-14, -3.578272343716907715E-16, 6.915047169429671570 ) ) ;
#127 = AXIS2_PLACEMENT_3D ( 'NONE', #126, #20, #193 ) ;
#128 = APPROVAL_DATE_TIME ( #129, #5 ) ;
#129 = DATE_AND_TIME ( #25, #222 ) ;
#130 = EDGE_CURVE ( 'NONE', #198, #198, #55, .T. ) ;
#131 = PERSON_AND_ORGANIZATION ( #8, #157 ) ;
#132 = APPROVAL ( #118, 'UNSPECIFIED' ) ;
#133 = DIRECTION ( 'NONE',  ( -4.275831445896958607E-31, -1.000000000000000000, -1.224646799147353207E-16 ) ) ;
#134 = EDGE_CURVE ( 'NONE', #42, #42, #109, .T. ) ;
#135 = SECURITY_CLASSIFICATION ( '', '', #169 ) ;
#136 = APPROVAL_STATUS ( 'not_yet_approved' ) ;
#137 = ORIENTED_EDGE ( 'NONE', *, *, #143, .T. ) ;
#138 = PRODUCT_DEFINITION_SHAPE ( 'NONE', 'NONE',  #74 ) ;
#139 = DIRECTION ( 'NONE',  ( 0.0000000000000000000, 1.000000000000000000, 0.0000000000000000000 ) ) ;
#140 = DIRECTION ( 'NONE',  ( 3.491481338843133355E-15, -1.224646799147353207E-16, 1.000000000000000000 ) ) ;
#141 = DIRECTION ( 'NONE',  ( 0.0000000000000000000, 1.000000000000000000, 0.0000000000000000000 ) ) ;
#142 = FACE_OUTER_BOUND ( 'NONE', #102, .T. ) ;
#143 = EDGE_CURVE ( 'NONE', #166, #166, #189, .T. ) ;
#144 = CARTESIAN_POINT ( 'NONE',  ( 1.326762908760390423E-13, -4.653657836759941941E-15, 38.00000000000000000 ) ) ;
#145 = AXIS2_PLACEMENT_3D ( 'NONE', #195, #112, #133 ) ;
#146 = CALENDAR_DATE ( 2021, 1, 11 ) ;
#147 = VERTEX_POINT ( 'NONE', #95 ) ;
#148 = DIRECTION ( 'NONE',  ( -4.285855558155653280E-31, -1.000000000000000000, -1.227517819005651552E-16 ) ) ;
#149 = CARTESIAN_POINT ( 'NONE',  ( -6.413731847436034514E-31, 0.0000000000000000000, -1.836965810494968570E-16 ) ) ;
#150 = UNCERTAINTY_MEASURE_WITH_UNIT (LENGTH_MEASURE( 1.000000000000000082E-05 ), #73, 'distance_accuracy_value', 'NONE');
#151 = SHAPE_DEFINITION_REPRESENTATION ( #138, #43 ) ;
#152 = ORIENTED_EDGE ( 'NONE', *, *, #130, .F. ) ;
#153 = AXIS2_PLACEMENT_3D ( 'NONE', #108, #140, #172 ) ;
#154 = DATE_TIME_ROLE ( 'classification_date' ) ;
#155 = CC_DESIGN_PERSON_AND_ORGANIZATION_ASSIGNMENT ( #83, #199, ( #135 ) ) ;
#156 = EDGE_LOOP ( 'NONE', ( #44 ) ) ;
#157 = ORGANIZATION ( 'UNSPECIFIED', 'UNSPECIFIED', '' ) ;
#158 = FACE_OUTER_BOUND ( 'NONE', #156, .T. ) ;
#159 = ORIENTED_EDGE ( 'NONE', *, *, #130, .T. ) ;
#160 = CC_DESIGN_APPROVAL ( #24, ( #77 ) ) ;
#161 = EDGE_LOOP ( 'NONE', ( #28 ) ) ;
#162 = DIRECTION ( 'NONE',  ( 0.0000000000000000000, 0.0000000000000000000, 1.000000000000000000 ) ) ;
#163 = AXIS2_PLACEMENT_3D ( 'NONE', #124, #19, #175 ) ;
#164 = CC_DESIGN_DATE_AND_TIME_ASSIGNMENT ( #81, #154, ( #135 ) ) ;
#165 =( NAMED_UNIT ( * ) SI_UNIT ( $, .STERADIAN. ) SOLID_ANGLE_UNIT ( ) );
#166 = VERTEX_POINT ( 'NONE', #7 ) ;
#167 = AXIS2_PLACEMENT_3D ( 'NONE', #192, #54, #176 ) ;
#168 = ORIENTED_EDGE ( 'NONE', *, *, #84, .F. ) ;
#169 = SECURITY_CLASSIFICATION_LEVEL ( 'unclassified' ) ;
#170 = EDGE_CURVE ( 'NONE', #196, #196, #180, .T. ) ;
#171 = AXIS2_PLACEMENT_3D ( 'NONE', #39, #110, #86 ) ;
#172 = DIRECTION ( 'NONE',  ( -4.275831445896958607E-31, -1.000000000000000000, -1.224646799147353207E-16 ) ) ;
#173 = PLANE ( 'NONE',  #220 ) ;
#174 = APPLICATION_CONTEXT ( 'configuration controlled 3d designs of mechanical parts and assemblies' ) ;
#175 = DIRECTION ( 'NONE',  ( 4.275831445896958607E-31, 1.000000000000000000, 1.224646799147353207E-16 ) ) ;
#176 = DIRECTION ( 'NONE',  ( 0.0000000000000000000, -1.000000000000000000, 0.0000000000000000000 ) ) ;
#177 = TOROIDAL_SURFACE ( 'NONE', #171, 8.949999999999999289, 8.000000000000000000 ) ;
#178 = DIRECTION ( 'NONE',  ( 0.0000000000000000000, -1.000000000000000000, 0.0000000000000000000 ) ) ;
#179 = COORDINATED_UNIVERSAL_TIME_OFFSET ( 1, 0, .AHEAD. ) ;
#180 = CIRCLE ( 'NONE', #127, 1.499999999999995781 ) ;
#181 = PERSON_AND_ORGANIZATION ( #8, #157 ) ;
#182 = APPROVAL_STATUS ( 'not_yet_approved' ) ;
#183 = AXIS2_PLACEMENT_3D ( 'NONE', #149, #215, #148 ) ;
#184 = PERSON_AND_ORGANIZATION_ROLE ( 'design_supplier' ) ;
#185 = EDGE_LOOP ( 'NONE', ( #30 ) ) ;
#186 = CALENDAR_DATE ( 2021, 1, 11 ) ;
#187 = APPROVAL_PERSON_ORGANIZATION ( #60, #5, #41 ) ;
#188 = DIRECTION ( 'NONE',  ( -4.285855558155651528E-31, -1.000000000000000000, -1.227517819005651059E-16 ) ) ;
#189 = CIRCLE ( 'NONE', #99, 1.199999999999997957 ) ;
#190 = ORIENTED_EDGE ( 'NONE', *, *, #170, .F. ) ;
#191 = FACE_OUTER_BOUND ( 'NONE', #217, .T. ) ;
#192 = CARTESIAN_POINT ( 'NONE',  ( 1.396592535537253027E-14, -4.910071276022603248E-16, 3.999999999999999112 ) ) ;
#193 = DIRECTION ( 'NONE',  ( 0.0000000000000000000, 1.000000000000000000, 0.0000000000000000000 ) ) ;
#194 = ADVANCED_FACE ( 'NONE', ( #206, #50 ), #208, .T. ) ;
#195 = CARTESIAN_POINT ( 'NONE',  ( -6.413803915257455362E-31, 2.249659577954771652E-32, -1.836986451539392583E-16 ) ) ;
#196 = VERTEX_POINT ( 'NONE', #93 ) ;
#197 = CIRCLE ( 'NONE', #75, 0.9499999999999995115 ) ;
#198 = VERTEX_POINT ( 'NONE', #98 ) ;
#199 = PERSON_AND_ORGANIZATION_ROLE ( 'classification_officer' ) ;
#200 = EDGE_LOOP ( 'NONE', ( #168 ) ) ;
#201 = COORDINATED_UNIVERSAL_TIME_OFFSET ( 1, 0, .AHEAD. ) ;
#202 = EDGE_LOOP ( 'NONE', ( #13 ) ) ;
#203 = PRODUCT ( '57178', '57178', '', ( #56 ) ) ;
#204 = AXIS2_PLACEMENT_3D ( 'NONE', #18, #70, #139 ) ;
#205 = CALENDAR_DATE ( 2021, 1, 11 ) ;
#206 = FACE_OUTER_BOUND ( 'NONE', #63, .T. ) ;
#207 = CYLINDRICAL_SURFACE ( 'NONE', #163, 1.499999999999995781 ) ;
#208 = CYLINDRICAL_SURFACE ( 'NONE', #183, 0.9499999999999996225 ) ;
#209 = DIRECTION ( 'NONE',  ( -4.275831445896958607E-31, -1.000000000000000000, -1.224646799147353207E-16 ) ) ;
#210 = CARTESIAN_POINT ( 'NONE',  ( -4.071562780247868689E-31, -8.234482691091618427E-33, -1.166141928055367939E-16 ) ) ;
#211 = ADVANCED_FACE ( 'NONE', ( #9 ), #115, .F. ) ;
#212 = APPLICATION_PROTOCOL_DEFINITION ( 'international standard', 'config_control_design', 1994, #174 ) ;
#213 = CC_DESIGN_SECURITY_CLASSIFICATION ( #135, ( #77 ) ) ;
#214 = DATE_AND_TIME ( #146, #100 ) ;
#215 = DIRECTION ( 'NONE',  ( 3.491481338843133355E-15, -1.227517819005651059E-16, 1.000000000000000000 ) ) ;
#216 = PERSON_AND_ORGANIZATION_ROLE ( 'design_owner' ) ;
#217 = EDGE_LOOP ( 'NONE', ( #190 ) ) ;
#218 =( GEOMETRIC_REPRESENTATION_CONTEXT ( 3 ) GLOBAL_UNCERTAINTY_ASSIGNED_CONTEXT ( ( #150 ) ) GLOBAL_UNIT_ASSIGNED_CONTEXT ( ( #73, #61, #165 ) ) REPRESENTATION_CONTEXT ( 'NONE', 'WORKASPACE' ) );
#219 = DATE_AND_TIME ( #205, #31 ) ;
#220 = AXIS2_PLACEMENT_3D ( 'NONE', #1, #123, #209 ) ;
#221 = CONICAL_SURFACE ( 'NONE', #16, 1.199999999999997957, 0.7853981633974450594 ) ;
#222 = LOCAL_TIME ( 10, 45, 46.00000000000000000, #179 ) ;
#223 = FACE_BOUND ( 'NONE', #72, .T. ) ;
ENDSEC;
END-ISO-10303-21;
