ISO-10303-21;
HEADER;
FILE_DESCRIPTION (( 'STEP AP203' ),
    '1' );
FILE_NAME ('57177.step',
    '2021-11-01T09:45:46',
    ( '' ),
    ( '' ),
    'SwSTEP 2.0',
    'SolidWorks 2019',
    '' );
FILE_SCHEMA (( 'CONFIG_CONTROL_DESIGN' ));
ENDSEC;

DATA;
#1 = CARTESIAN_POINT ( 'NONE',  ( 1.316288464743861212E-13, 1.499999999999993117, 37.69999999999999574 ) ) ;
#2 = APPROVAL_DATE_TIME ( #55, #221 ) ;
#3 = DATE_TIME_ROLE ( 'classification_date' ) ;
#4 = PERSON_AND_ORGANIZATION ( #131, #23 ) ;
#5 = EDGE_LOOP ( 'NONE', ( #144 ) ) ;
#6 = DIRECTION ( 'NONE',  ( 3.491481338843133355E-15, -1.227517819005651059E-16, 1.000000000000000000 ) ) ;
#7 = APPROVAL ( #71, 'UNSPECIFIED' ) ;
#8 = ORIENTED_EDGE ( 'NONE', *, *, #129, .T. ) ;
#9 = CARTESIAN_POINT ( 'NONE',  ( 1.117274028429802674E-14, 1.124819836996387869E-32, 3.200000000000000178 ) ) ;
#10 = CIRCLE ( 'NONE', #211, 1.499999999999995781 ) ;
#11 = FACE_OUTER_BOUND ( 'NONE', #25, .T. ) ;
#12 = DIRECTION ( 'NONE',  ( 0.0000000000000000000, -1.000000000000000000, 0.0000000000000000000 ) ) ;
#13 = VERTEX_POINT ( 'NONE', #97 ) ;
#14 = DIRECTION ( 'NONE',  ( 3.491481338843133355E-15, -1.227517819005651059E-16, 1.000000000000000000 ) ) ;
#15 = CALENDAR_DATE ( 2021, 1, 11 ) ;
#16 = LOCAL_TIME ( 10, 45, 46.00000000000000000, #212 ) ;
#17 = PERSON_AND_ORGANIZATION_ROLE ( 'creator' ) ;
#18 = AXIS2_PLACEMENT_3D ( 'NONE', #33, #128, #12 ) ;
#19 = DIRECTION ( 'NONE',  ( 0.0000000000000000000, 0.0000000000000000000, 1.000000000000000000 ) ) ;
#20 = UNCERTAINTY_MEASURE_WITH_UNIT (LENGTH_MEASURE( 1.000000000000000082E-05 ), #90, 'distance_accuracy_value', 'NONE');
#21 = ADVANCED_FACE ( 'NONE', ( #73 ), #136, .F. ) ;
#22 = APPLICATION_PROTOCOL_DEFINITION ( 'international standard', 'config_control_design', 1994, #102 ) ;
#23 = ORGANIZATION ( 'UNSPECIFIED', 'UNSPECIFIED', '' ) ;
#24 = PERSON_AND_ORGANIZATION ( #131, #23 ) ;
#25 = EDGE_LOOP ( 'NONE', ( #76 ) ) ;
#26 = EDGE_CURVE ( 'NONE', #48, #48, #207, .T. ) ;
#27 = AXIS2_PLACEMENT_3D ( 'NONE', #58, #19, #118 ) ;
#28 = CIRCLE ( 'NONE', #152, 1.499999999999997558 ) ;
#29 = CONICAL_SURFACE ( 'NONE', #35, 1.199999999999997957, 0.7853981633974450594 ) ;
#30 = ORIENTED_EDGE ( 'NONE', *, *, #209, .T. ) ;
#31 = DIRECTION ( 'NONE',  ( 4.275831445896958607E-31, 1.000000000000000000, 1.224646799147353207E-16 ) ) ;
#32 = CIRCLE ( 'NONE', #18, 0.8000000000000008216 ) ;
#33 = CARTESIAN_POINT ( 'NONE',  ( 1.117274028429802516E-14, -3.928057020818082697E-16, 3.199999999999999289 ) ) ;
#34 = CARTESIAN_POINT ( 'NONE',  ( -6.857368893049037715E-31, -0.7999999999999990452, -1.964028510409039377E-16 ) ) ;
#35 = AXIS2_PLACEMENT_3D ( 'NONE', #200, #101, #49 ) ;
#36 = DIRECTION ( 'NONE',  ( 3.491481338843133355E-15, -1.224646799147353207E-16, 1.000000000000000000 ) ) ;
#37 = DIRECTION ( 'NONE',  ( -4.275831445896958607E-31, -1.000000000000000000, -1.224646799147353207E-16 ) ) ;
#38 = VERTEX_POINT ( 'NONE', #87 ) ;
#39 =( NAMED_UNIT ( * ) PLANE_ANGLE_UNIT ( ) SI_UNIT ( $, .RADIAN. ) );
#40 = AXIS2_PLACEMENT_3D ( 'NONE', #47, #66, #202 ) ;
#41 = APPROVAL ( #134, 'UNSPECIFIED' ) ;
#42 = EDGE_LOOP ( 'NONE', ( #122 ) ) ;
#43 = CARTESIAN_POINT ( 'NONE',  ( 1.117274028429802674E-14, 1.124819836996387869E-32, 3.200000000000000178 ) ) ;
#44 = PRODUCT ( '57177', '57177', '', ( #56 ) ) ;
#45 = ADVANCED_FACE ( 'NONE', ( #146 ), #96, .F. ) ;
#46 = ORIENTED_EDGE ( 'NONE', *, *, #106, .F. ) ;
#47 = CARTESIAN_POINT ( 'NONE',  ( 1.117274028429802516E-14, 0.0000000000000000000, 3.199999999999999289 ) ) ;
#48 = VERTEX_POINT ( 'NONE', #34 ) ;
#49 = DIRECTION ( 'NONE',  ( 0.0000000000000000000, 1.000000000000000000, 0.0000000000000000000 ) ) ;
#50 = VERTEX_POINT ( 'NONE', #1 ) ;
#51 = LOCAL_TIME ( 10, 45, 46.00000000000000000, #210 ) ;
#52 = EDGE_CURVE ( 'NONE', #13, #13, #10, .T. ) ;
#53 = DIRECTION ( 'NONE',  ( 0.0000000000000000000, 1.000000000000000000, 0.0000000000000000000 ) ) ;
#54 = AXIS2_PLACEMENT_3D ( 'NONE', #218, #36, #37 ) ;
#55 = DATE_AND_TIME ( #208, #201 ) ;
#56 = MECHANICAL_CONTEXT ( 'NONE', #102, 'mechanical' ) ;
#57 = LOCAL_TIME ( 10, 45, 46.00000000000000000, #68 ) ;
#58 = CARTESIAN_POINT ( 'NONE',  ( 0.0000000000000000000, 0.0000000000000000000, 0.0000000000000000000 ) ) ;
#59 = PERSON_AND_ORGANIZATION ( #131, #23 ) ;
#60 = APPLICATION_PROTOCOL_DEFINITION ( 'international standard', 'config_control_design', 1994, #107 ) ;
#61 = DIRECTION ( 'NONE',  ( -4.285855558155652404E-31, -1.000000000000000000, -1.227517819005651059E-16 ) ) ;
#62 =( GEOMETRIC_REPRESENTATION_CONTEXT ( 3 ) GLOBAL_UNCERTAINTY_ASSIGNED_CONTEXT ( ( #20 ) ) GLOBAL_UNIT_ASSIGNED_CONTEXT ( ( #90, #39, #177 ) ) REPRESENTATION_CONTEXT ( 'NONE', 'WORKASPACE' ) );
#63 = DIRECTION ( 'NONE',  ( 0.0000000000000000000, -1.000000000000000000, 0.0000000000000000000 ) ) ;
#64 = VERTEX_POINT ( 'NONE', #100 ) ;
#65 = FACE_OUTER_BOUND ( 'NONE', #216, .T. ) ;
#66 = DIRECTION ( 'NONE',  ( 3.491481338843133355E-15, -1.227517819005651059E-16, 1.000000000000000000 ) ) ;
#67 = MANIFOLD_SOLID_BREP ( 'Corps-Déplacer/Copier1[1]', #105 ) ;
#68 = COORDINATED_UNIVERSAL_TIME_OFFSET ( 1, 0, .AHEAD. ) ;
#69 = CC_DESIGN_PERSON_AND_ORGANIZATION_ASSIGNMENT ( #172, #195, ( #79 ) ) ;
#70 = PERSON_AND_ORGANIZATION_ROLE ( 'design_owner' ) ;
#71 = APPROVAL_STATUS ( 'not_yet_approved' ) ;
#72 = CC_DESIGN_PERSON_AND_ORGANIZATION_ASSIGNMENT ( #190, #86, ( #143 ) ) ;
#73 = FACE_OUTER_BOUND ( 'NONE', #139, .T. ) ;
#74 = AXIS2_PLACEMENT_3D ( 'NONE', #78, #187, #63 ) ;
#75 = AXIS2_PLACEMENT_3D ( 'NONE', #125, #99, #31 ) ;
#76 = ORIENTED_EDGE ( 'NONE', *, *, #52, .T. ) ;
#77 = AXIS2_PLACEMENT_3D ( 'NONE', #43, #214, #181 ) ;
#78 = CARTESIAN_POINT ( 'NONE',  ( 1.117274028429802516E-14, -3.928057020818082697E-16, 3.199999999999999289 ) ) ;
#79 = PRODUCT_DEFINITION ( 'UNKNOWN', '', #143, #161 ) ;
#80 = PLANE ( 'NONE',  #174 ) ;
#81 = CARTESIAN_POINT ( 'NONE',  ( 2.259900971801676072E-14, -4.017191550935429310E-16, 6.472613634390699922 ) ) ;
#82 = DIRECTION ( 'NONE',  ( -3.491481338843133355E-15, 1.224646799147353207E-16, -1.000000000000000000 ) ) ;
#83 = CIRCLE ( 'NONE', #140, 1.199999999999997957 ) ;
#84 = FACE_OUTER_BOUND ( 'NONE', #167, .T. ) ;
#85 = DATE_AND_TIME ( #15, #16 ) ;
#86 = PERSON_AND_ORGANIZATION_ROLE ( 'design_supplier' ) ;
#87 = CARTESIAN_POINT ( 'NONE',  ( 1.117274028429802516E-14, -0.8000000000000012657, 3.199999999999999289 ) ) ;
#88 = DATE_TIME_ROLE ( 'creation_date' ) ;
#89 = ADVANCED_FACE ( 'NONE', ( #115, #113 ), #171, .T. ) ;
#90 =( LENGTH_UNIT ( ) NAMED_UNIT ( * ) SI_UNIT ( .MILLI., .METRE. ) );
#91 = APPROVAL_PERSON_ORGANIZATION ( #192, #221, #191 ) ;
#92 = CARTESIAN_POINT ( 'NONE',  ( -3.428684446524518858E-31, -1.049468268505621036E-32, -9.820142552045196883E-17 ) ) ;
#93 = ORIENTED_EDGE ( 'NONE', *, *, #52, .F. ) ;
#94 = CC_DESIGN_PERSON_AND_ORGANIZATION_ASSIGNMENT ( #4, #132, ( #137 ) ) ;
#95 = ORIENTED_EDGE ( 'NONE', *, *, #26, .T. ) ;
#96 = PLANE ( 'NONE',  #54 ) ;
#97 = CARTESIAN_POINT ( 'NONE',  ( 2.259900971801676072E-14, 1.499999999999995337, 6.472613634390699922 ) ) ;
#98 = TOROIDAL_SURFACE ( 'NONE', #40, 8.800000000000002487, 8.000000000000000000 ) ;
#99 = DIRECTION ( 'NONE',  ( -3.491481338843133355E-15, 1.224646799147353207E-16, -1.000000000000000000 ) ) ;
#100 = CARTESIAN_POINT ( 'NONE',  ( 1.117274028429802516E-14, -0.8000000000000012657, 3.199999999999999289 ) ) ;
#101 = DIRECTION ( 'NONE',  ( -3.491481338843133355E-15, 1.224646799147353207E-16, -1.000000000000000000 ) ) ;
#102 = APPLICATION_CONTEXT ( 'configuration controlled 3d designs of mechanical parts and assemblies' ) ;
#103 = PRODUCT_RELATED_PRODUCT_CATEGORY ( 'detail', '', ( #44 ) ) ;
#104 = CC_DESIGN_APPROVAL ( #221, ( #143 ) ) ;
#105 = CLOSED_SHELL ( 'NONE', ( #204, #150, #194, #165, #21 ) ) ;
#106 = EDGE_CURVE ( 'NONE', #64, #64, #32, .T. ) ;
#107 = APPLICATION_CONTEXT ( 'configuration controlled 3d designs of mechanical parts and assemblies' ) ;
#108 = ORIENTED_EDGE ( 'NONE', *, *, #129, .F. ) ;
#109 = CC_DESIGN_PERSON_AND_ORGANIZATION_ASSIGNMENT ( #117, #17, ( #143 ) ) ;
#110 = EDGE_LOOP ( 'NONE', ( #184 ) ) ;
#111 = APPROVAL_PERSON_ORGANIZATION ( #24, #7, #135 ) ;
#112 = CARTESIAN_POINT ( 'NONE',  ( -6.413731847436034514E-31, 0.0000000000000000000, -1.836965810494968570E-16 ) ) ;
#113 = FACE_OUTER_BOUND ( 'NONE', #196, .T. ) ;
#114 = DIRECTION ( 'NONE',  ( 3.491481338843133355E-15, -1.224646799147353207E-16, 1.000000000000000000 ) ) ;
#115 = FACE_OUTER_BOUND ( 'NONE', #198, .T. ) ;
#116 = FACE_OUTER_BOUND ( 'NONE', #5, .T. ) ;
#117 = PERSON_AND_ORGANIZATION ( #131, #23 ) ;
#118 = DIRECTION ( 'NONE',  ( 1.000000000000000000, 0.0000000000000000000, 0.0000000000000000000 ) ) ;
#119 = CALENDAR_DATE ( 2021, 1, 11 ) ;
#120 = DATE_AND_TIME ( #175, #57 ) ;
#121 = SHAPE_DEFINITION_REPRESENTATION ( #173, #147 ) ;
#122 = ORIENTED_EDGE ( 'NONE', *, *, #26, .F. ) ;
#123 = ORIENTED_EDGE ( 'NONE', *, *, #209, .F. ) ;
#124 = DIRECTION ( 'NONE',  ( 0.0000000000000000000, 1.000000000000000000, 0.0000000000000000000 ) ) ;
#125 = CARTESIAN_POINT ( 'NONE',  ( 1.326762908760390423E-13, 8.998558695971062171E-33, 38.00000000000000000 ) ) ;
#126 = VERTEX_POINT ( 'NONE', #153 ) ;
#127 = DIRECTION ( 'NONE',  ( 4.275831445896958607E-31, 1.000000000000000000, 1.224646799147353207E-16 ) ) ;
#128 = DIRECTION ( 'NONE',  ( 3.491481338843133355E-15, -1.227517819005651059E-16, 1.000000000000000000 ) ) ;
#129 = EDGE_CURVE ( 'NONE', #126, #126, #83, .T. ) ;
#130 = COORDINATED_UNIVERSAL_TIME_OFFSET ( 1, 0, .AHEAD. ) ;
#131 = PERSON ( 'UNSPECIFIED', 'UNSPECIFIED', 'UNSPECIFIED', ('UNSPECIFIED'), ('UNSPECIFIED'), ('UNSPECIFIED') ) ;
#132 = PERSON_AND_ORGANIZATION_ROLE ( 'classification_officer' ) ;
#133 = CC_DESIGN_APPROVAL ( #41, ( #137 ) ) ;
#134 = APPROVAL_STATUS ( 'not_yet_approved' ) ;
#135 = APPROVAL_ROLE ( '' ) ;
#136 = PLANE ( 'NONE',  #77 ) ;
#137 = SECURITY_CLASSIFICATION ( '', '', #162 ) ;
#138 = CC_DESIGN_DATE_AND_TIME_ASSIGNMENT ( #160, #3, ( #137 ) ) ;
#139 = EDGE_LOOP ( 'NONE', ( #123 ) ) ;
#140 = AXIS2_PLACEMENT_3D ( 'NONE', #203, #82, #188 ) ;
#141 = EDGE_LOOP ( 'NONE', ( #8 ) ) ;
#142 = EDGE_CURVE ( 'NONE', #50, #50, #28, .T. ) ;
#143 = PRODUCT_DEFINITION_FORMATION_WITH_SPECIFIED_SOURCE ( 'ANY', '', #44, .NOT_KNOWN. ) ;
#144 = ORIENTED_EDGE ( 'NONE', *, *, #106, .T. ) ;
#145 = AXIS2_PLACEMENT_3D ( 'NONE', #92, #6, #169 ) ;
#146 = FACE_OUTER_BOUND ( 'NONE', #42, .T. ) ;
#147 = ADVANCED_BREP_SHAPE_REPRESENTATION ( '57177', ( #67, #215, #27 ), #62 ) ;
#148 = FACE_OUTER_BOUND ( 'NONE', #110, .T. ) ;
#149 = AXIS2_PLACEMENT_3D ( 'NONE', #170, #205, #127 ) ;
#150 = ADVANCED_FACE ( 'NONE', ( #84, #206 ), #29, .T. ) ;
#151 = CYLINDRICAL_SURFACE ( 'NONE', #149, 1.499999999999995781 ) ;
#152 = AXIS2_PLACEMENT_3D ( 'NONE', #154, #219, #124 ) ;
#153 = CARTESIAN_POINT ( 'NONE',  ( 1.326762908760390423E-13, 1.199999999999993294, 38.00000000000000000 ) ) ;
#154 = CARTESIAN_POINT ( 'NONE',  ( 1.316288464743861212E-13, -4.616918432785521081E-15, 37.69999999999999574 ) ) ;
#155 = CC_DESIGN_DATE_AND_TIME_ASSIGNMENT ( #85, #88, ( #79 ) ) ;
#156 = APPROVAL_PERSON_ORGANIZATION ( #59, #41, #183 ) ;
#157 = APPROVAL_STATUS ( 'not_yet_approved' ) ;
#158 = PERSON_AND_ORGANIZATION ( #131, #23 ) ;
#159 = AXIS2_PLACEMENT_3D ( 'NONE', #112, #14, #61 ) ;
#160 = DATE_AND_TIME ( #119, #51 ) ;
#161 = DESIGN_CONTEXT ( 'detailed design', #107, 'design' ) ;
#162 = SECURITY_CLASSIFICATION_LEVEL ( 'unclassified' ) ;
#163 = EDGE_LOOP ( 'NONE', ( #108 ) ) ;
#164 = CC_DESIGN_APPROVAL ( #7, ( #79 ) ) ;
#165 = ADVANCED_FACE ( 'NONE', ( #222, #11 ), #98, .F. ) ;
#166 = EDGE_LOOP ( 'NONE', ( #30 ) ) ;
#167 = EDGE_LOOP ( 'NONE', ( #217 ) ) ;
#168 = FACE_OUTER_BOUND ( 'NONE', #163, .T. ) ;
#169 = DIRECTION ( 'NONE',  ( -4.285855558155653280E-31, -1.000000000000000000, -1.227517819005651059E-16 ) ) ;
#170 = CARTESIAN_POINT ( 'NONE',  ( 0.0000000000000000000, 0.0000000000000000000, 0.0000000000000000000 ) ) ;
#171 = CYLINDRICAL_SURFACE ( 'NONE', #159, 0.7999999999999999334 ) ;
#172 = PERSON_AND_ORGANIZATION ( #131, #23 ) ;
#173 = PRODUCT_DEFINITION_SHAPE ( 'NONE', 'NONE',  #79 ) ;
#174 = AXIS2_PLACEMENT_3D ( 'NONE', #9, #114, #189 ) ;
#175 = CALENDAR_DATE ( 2021, 1, 11 ) ;
#176 = CC_DESIGN_SECURITY_CLASSIFICATION ( #137, ( #143 ) ) ;
#177 =( NAMED_UNIT ( * ) SI_UNIT ( $, .STERADIAN. ) SOLID_ANGLE_UNIT ( ) );
#178 = CALENDAR_DATE ( 2021, 1, 11 ) ;
#179 = COORDINATED_UNIVERSAL_TIME_OFFSET ( 1, 0, .AHEAD. ) ;
#180 = CIRCLE ( 'NONE', #74, 0.8000000000000008216 ) ;
#181 = DIRECTION ( 'NONE',  ( -4.275831445896958607E-31, -1.000000000000000000, -1.224646799147353207E-16 ) ) ;
#182 = CC_DESIGN_PERSON_AND_ORGANIZATION_ASSIGNMENT ( #158, #70, ( #44 ) ) ;
#183 = APPROVAL_ROLE ( '' ) ;
#184 = ORIENTED_EDGE ( 'NONE', *, *, #142, .T. ) ;
#185 = PLANE ( 'NONE',  #75 ) ;
#186 = DIRECTION ( 'NONE',  ( -3.491481338843133355E-15, 1.227517819005651059E-16, -1.000000000000000000 ) ) ;
#187 = DIRECTION ( 'NONE',  ( 3.491481338843133355E-15, -1.227517819005651059E-16, 1.000000000000000000 ) ) ;
#188 = DIRECTION ( 'NONE',  ( 0.0000000000000000000, 1.000000000000000000, 0.0000000000000000000 ) ) ;
#189 = DIRECTION ( 'NONE',  ( -4.275831445896958607E-31, -1.000000000000000000, -1.224646799147353207E-16 ) ) ;
#190 = PERSON_AND_ORGANIZATION ( #131, #23 ) ;
#191 = APPROVAL_ROLE ( '' ) ;
#192 = PERSON_AND_ORGANIZATION ( #131, #23 ) ;
#193 = APPROVAL_DATE_TIME ( #120, #7 ) ;
#194 = ADVANCED_FACE ( 'NONE', ( #168 ), #185, .F. ) ;
#195 = PERSON_AND_ORGANIZATION_ROLE ( 'creator' ) ;
#196 = EDGE_LOOP ( 'NONE', ( #46 ) ) ;
#197 = DATE_AND_TIME ( #178, #220 ) ;
#198 = EDGE_LOOP ( 'NONE', ( #95 ) ) ;
#199 = ADVANCED_FACE ( 'NONE', ( #116 ), #80, .T. ) ;
#200 = CARTESIAN_POINT ( 'NONE',  ( 1.326762908760390423E-13, -4.653657836759941941E-15, 38.00000000000000000 ) ) ;
#201 = LOCAL_TIME ( 10, 45, 46.00000000000000000, #130 ) ;
#202 = DIRECTION ( 'NONE',  ( -4.364889172451069102E-31, -1.000000000000000000, -1.227517819005651059E-16 ) ) ;
#203 = CARTESIAN_POINT ( 'NONE',  ( 1.326762908760390423E-13, -4.653657836759941941E-15, 38.00000000000000000 ) ) ;
#204 = ADVANCED_FACE ( 'NONE', ( #148, #65 ), #151, .T. ) ;
#205 = DIRECTION ( 'NONE',  ( -3.491481338843133355E-15, 1.224646799147353207E-16, -1.000000000000000000 ) ) ;
#206 = FACE_BOUND ( 'NONE', #141, .T. ) ;
#207 = CIRCLE ( 'NONE', #145, 0.7999999999999990452 ) ;
#208 = CALENDAR_DATE ( 2021, 1, 11 ) ;
#209 = EDGE_CURVE ( 'NONE', #38, #38, #180, .T. ) ;
#210 = COORDINATED_UNIVERSAL_TIME_OFFSET ( 1, 0, .AHEAD. ) ;
#211 = AXIS2_PLACEMENT_3D ( 'NONE', #81, #186, #53 ) ;
#212 = COORDINATED_UNIVERSAL_TIME_OFFSET ( 1, 0, .AHEAD. ) ;
#213 = APPROVAL_DATE_TIME ( #197, #41 ) ;
#214 = DIRECTION ( 'NONE',  ( 3.491481338843133355E-15, -1.224646799147353207E-16, 1.000000000000000000 ) ) ;
#215 = MANIFOLD_SOLID_BREP ( 'Corps-Déplacer/Copier1[2]', #223 ) ;
#216 = EDGE_LOOP ( 'NONE', ( #93 ) ) ;
#217 = ORIENTED_EDGE ( 'NONE', *, *, #142, .F. ) ;
#218 = CARTESIAN_POINT ( 'NONE',  ( -6.413803915257455362E-31, 2.249659577954771652E-32, -1.836986451539392583E-16 ) ) ;
#219 = DIRECTION ( 'NONE',  ( -3.491481338843133355E-15, 1.224646799147353207E-16, -1.000000000000000000 ) ) ;
#220 = LOCAL_TIME ( 10, 45, 46.00000000000000000, #179 ) ;
#221 = APPROVAL ( #157, 'UNSPECIFIED' ) ;
#222 = FACE_OUTER_BOUND ( 'NONE', #166, .T. ) ;
#223 = CLOSED_SHELL ( 'NONE', ( #199, #89, #45 ) ) ;
ENDSEC;
END-ISO-10303-21;
