ISO-10303-21;
HEADER;
FILE_DESCRIPTION (( 'STEP AP203' ),
    '1' );
FILE_NAME ('57176.step',
    '2021-11-01T09:45:45',
    ( '' ),
    ( '' ),
    'SwSTEP 2.0',
    'SolidWorks 2019',
    '' );
FILE_SCHEMA (( 'CONFIG_CONTROL_DESIGN' ));
ENDSEC;

DATA;
#1 = CARTESIAN_POINT ( 'NONE',  ( -6.413803915257455362E-31, 2.249659577954771652E-32, -1.836986451539392583E-16 ) ) ;
#2 = FACE_OUTER_BOUND ( 'NONE', #16, .T. ) ;
#3 = CIRCLE ( 'NONE', #119, 1.499999999999997558 ) ;
#4 = CC_DESIGN_SECURITY_CLASSIFICATION ( #98, ( #36 ) ) ;
#5 = DIRECTION ( 'NONE',  ( 0.0000000000000000000, -1.000000000000000000, 0.0000000000000000000 ) ) ;
#6 = DIRECTION ( 'NONE',  ( -4.275831445896958607E-31, -1.000000000000000000, -1.224646799147353207E-16 ) ) ;
#7 = CARTESIAN_POINT ( 'NONE',  ( 2.444036937190193349E-14, 1.124819836996387322E-32, 7.000000000000000000 ) ) ;
#8 = CONICAL_SURFACE ( 'NONE', #189, 1.199999999999997957, 0.7853981633974450594 ) ;
#9 = PERSON_AND_ORGANIZATION ( #65, #44 ) ;
#10 =( NAMED_UNIT ( * ) SI_UNIT ( $, .STERADIAN. ) SOLID_ANGLE_UNIT ( ) );
#11 = UNCERTAINTY_MEASURE_WITH_UNIT (LENGTH_MEASURE( 1.000000000000000082E-05 ), #135, 'distance_accuracy_value', 'NONE');
#12 = CARTESIAN_POINT ( 'NONE',  ( 2.444036937190193033E-14, -0.7500000000000006661, 6.999999999999999112 ) ) ;
#13 = AXIS2_PLACEMENT_3D ( 'NONE', #222, #144, #76 ) ;
#14 = APPROVAL_STATUS ( 'not_yet_approved' ) ;
#15 = ORIENTED_EDGE ( 'NONE', *, *, #66, .T. ) ;
#16 = EDGE_LOOP ( 'NONE', ( #221 ) ) ;
#17 = CARTESIAN_POINT ( 'NONE',  ( 1.316288464743861212E-13, -4.616918432785521081E-15, 37.69999999999999574 ) ) ;
#18 = AXIS2_PLACEMENT_3D ( 'NONE', #90, #92, #109 ) ;
#19 = EDGE_CURVE ( 'NONE', #143, #143, #3, .T. ) ;
#20 = DIRECTION ( 'NONE',  ( 3.491481338843133355E-15, -1.227517819005651059E-16, 1.000000000000000000 ) ) ;
#21 = DIRECTION ( 'NONE',  ( -4.285855558155653280E-31, -1.000000000000000000, -1.227517819005651059E-16 ) ) ;
#22 = CARTESIAN_POINT ( 'NONE',  ( -3.214391668616739084E-31, -1.124808268304439581E-32, -9.206383642542380474E-17 ) ) ;
#23 = AXIS2_PLACEMENT_3D ( 'NONE', #148, #130, #5 ) ;
#24 = FACE_OUTER_BOUND ( 'NONE', #103, .T. ) ;
#25 = FACE_BOUND ( 'NONE', #53, .T. ) ;
#26 = DIRECTION ( 'NONE',  ( 0.0000000000000000000, 0.0000000000000000000, 1.000000000000000000 ) ) ;
#27 = APPROVAL_DATE_TIME ( #185, #106 ) ;
#28 = DATE_AND_TIME ( #132, #114 ) ;
#29 = PERSON_AND_ORGANIZATION ( #65, #44 ) ;
#30 = APPROVAL ( #154, 'UNSPECIFIED' ) ;
#31 = DIRECTION ( 'NONE',  ( 1.000000000000000000, 0.0000000000000000000, 0.0000000000000000000 ) ) ;
#32 = ORIENTED_EDGE ( 'NONE', *, *, #195, .F. ) ;
#33 = DATE_TIME_ROLE ( 'classification_date' ) ;
#34 = ORIENTED_EDGE ( 'NONE', *, *, #59, .F. ) ;
#35 = CARTESIAN_POINT ( 'NONE',  ( 2.444036937190193033E-14, 0.0000000000000000000, 6.999999999999999112 ) ) ;
#36 = PRODUCT_DEFINITION_FORMATION_WITH_SPECIFIED_SOURCE ( 'ANY', '', #61, .NOT_KNOWN. ) ;
#37 = VERTEX_POINT ( 'NONE', #196 ) ;
#38 = FACE_OUTER_BOUND ( 'NONE', #124, .T. ) ;
#39 = DIRECTION ( 'NONE',  ( -4.285855558155654155E-31, -1.000000000000000000, -1.227517819005650812E-16 ) ) ;
#40 = DIRECTION ( 'NONE',  ( 3.491481338843133355E-15, -1.227517819005651059E-16, 1.000000000000000000 ) ) ;
#41 = PERSON_AND_ORGANIZATION ( #65, #44 ) ;
#42 = ADVANCED_FACE ( 'NONE', ( #89, #164 ), #160, .T. ) ;
#43 = PERSON_AND_ORGANIZATION_ROLE ( 'design_supplier' ) ;
#44 = ORGANIZATION ( 'UNSPECIFIED', 'UNSPECIFIED', '' ) ;
#45 = COORDINATED_UNIVERSAL_TIME_OFFSET ( 1, 0, .AHEAD. ) ;
#46 = LOCAL_TIME ( 10, 45, 45.00000000000000000, #173 ) ;
#47 = CALENDAR_DATE ( 2021, 1, 11 ) ;
#48 = ADVANCED_FACE ( 'NONE', ( #38 ), #111, .F. ) ;
#49 = TOROIDAL_SURFACE ( 'NONE', #215, 8.749999999999998224, 8.000000000000000000 ) ;
#50 = EDGE_LOOP ( 'NONE', ( #121 ) ) ;
#51 = APPROVAL_PERSON_ORGANIZATION ( #120, #88, #159 ) ;
#52 = ADVANCED_FACE ( 'NONE', ( #57 ), #179, .F. ) ;
#53 = EDGE_LOOP ( 'NONE', ( #191 ) ) ;
#54 = VERTEX_POINT ( 'NONE', #194 ) ;
#55 = CLOSED_SHELL ( 'NONE', ( #42, #208, #48, #162, #52 ) ) ;
#56 = CYLINDRICAL_SURFACE ( 'NONE', #186, 0.7499999999999997780 ) ;
#57 = FACE_OUTER_BOUND ( 'NONE', #207, .T. ) ;
#58 = DIRECTION ( 'NONE',  ( -3.491481338843133355E-15, 1.227517819005651059E-16, -1.000000000000000000 ) ) ;
#59 = EDGE_CURVE ( 'NONE', #37, #37, #136, .T. ) ;
#60 = COORDINATED_UNIVERSAL_TIME_OFFSET ( 1, 0, .AHEAD. ) ;
#61 = PRODUCT ( '57176', '57176', '', ( #152 ) ) ;
#62 = CARTESIAN_POINT ( 'NONE',  ( 0.0000000000000000000, 0.0000000000000000000, 0.0000000000000000000 ) ) ;
#63 = VERTEX_POINT ( 'NONE', #115 ) ;
#64 = DESIGN_CONTEXT ( 'detailed design', #166, 'design' ) ;
#65 = PERSON ( 'UNSPECIFIED', 'UNSPECIFIED', 'UNSPECIFIED', ('UNSPECIFIED'), ('UNSPECIFIED'), ('UNSPECIFIED') ) ;
#66 = EDGE_CURVE ( 'NONE', #54, #54, #163, .T. ) ;
#67 = CC_DESIGN_DATE_AND_TIME_ASSIGNMENT ( #133, #83, ( #157 ) ) ;
#68 = COORDINATED_UNIVERSAL_TIME_OFFSET ( 1, 0, .AHEAD. ) ;
#69 = DIRECTION ( 'NONE',  ( -3.491481338843133355E-15, 1.224646799147353207E-16, -1.000000000000000000 ) ) ;
#70 = PRODUCT_RELATED_PRODUCT_CATEGORY ( 'detail', '', ( #61 ) ) ;
#71 = LOCAL_TIME ( 10, 45, 45.00000000000000000, #170 ) ;
#72 = AXIS2_PLACEMENT_3D ( 'NONE', #62, #26, #31 ) ;
#73 = DIRECTION ( 'NONE',  ( 0.0000000000000000000, 1.000000000000000000, 0.0000000000000000000 ) ) ;
#74 = FACE_OUTER_BOUND ( 'NONE', #209, .T. ) ;
#75 = CC_DESIGN_APPROVAL ( #106, ( #157 ) ) ;
#76 = DIRECTION ( 'NONE',  ( 4.275831445896958607E-31, 1.000000000000000000, 1.224646799147353207E-16 ) ) ;
#77 = DIRECTION ( 'NONE',  ( 0.0000000000000000000, 1.000000000000000000, 0.0000000000000000000 ) ) ;
#78 = CARTESIAN_POINT ( 'NONE',  ( 3.624834039502502580E-14, -4.151388316452693967E-16, 10.38193731461716673 ) ) ;
#79 = PERSON_AND_ORGANIZATION ( #65, #44 ) ;
#80 = VERTEX_POINT ( 'NONE', #12 ) ;
#81 = CC_DESIGN_APPROVAL ( #88, ( #98 ) ) ;
#82 = APPROVAL_ROLE ( '' ) ;
#83 = DATE_TIME_ROLE ( 'creation_date' ) ;
#84 = CC_DESIGN_PERSON_AND_ORGANIZATION_ASSIGNMENT ( #201, #43, ( #36 ) ) ;
#85 = ORIENTED_EDGE ( 'NONE', *, *, #116, .T. ) ;
#86 = DIRECTION ( 'NONE',  ( 0.0000000000000000000, 1.000000000000000000, 0.0000000000000000000 ) ) ;
#87 = MANIFOLD_SOLID_BREP ( 'Corps-Déplacer/Copier1[2]', #210 ) ;
#88 = APPROVAL ( #206, 'UNSPECIFIED' ) ;
#89 = FACE_OUTER_BOUND ( 'NONE', #50, .T. ) ;
#90 = CARTESIAN_POINT ( 'NONE',  ( 2.444036937190193033E-14, -8.592624733039555931E-16, 6.999999999999999112 ) ) ;
#91 = DIRECTION ( 'NONE',  ( 3.491481338843133355E-15, -1.227517819005651059E-16, 1.000000000000000000 ) ) ;
#92 = DIRECTION ( 'NONE',  ( 3.491481338843133355E-15, -1.227517819005651059E-16, 1.000000000000000000 ) ) ;
#93 = DIRECTION ( 'NONE',  ( -4.275831445896958607E-31, -1.000000000000000000, -1.224646799147353207E-16 ) ) ;
#94 = ADVANCED_FACE ( 'NONE', ( #169, #2 ), #56, .T. ) ;
#95 = DIRECTION ( 'NONE',  ( 3.491481338843133355E-15, -1.224646799147353207E-16, 1.000000000000000000 ) ) ;
#96 = APPLICATION_PROTOCOL_DEFINITION ( 'international standard', 'config_control_design', 1994, #200 ) ;
#97 = AXIS2_PLACEMENT_3D ( 'NONE', #78, #58, #77 ) ;
#98 = SECURITY_CLASSIFICATION ( '', '', #112 ) ;
#99 = PERSON_AND_ORGANIZATION_ROLE ( 'creator' ) ;
#100 = CALENDAR_DATE ( 2021, 1, 11 ) ;
#101 = CALENDAR_DATE ( 2021, 1, 11 ) ;
#102 = ORIENTED_EDGE ( 'NONE', *, *, #116, .F. ) ;
#103 = EDGE_LOOP ( 'NONE', ( #125 ) ) ;
#104 = EDGE_LOOP ( 'NONE', ( #15 ) ) ;
#105 = CARTESIAN_POINT ( 'NONE',  ( 1.326762908760390423E-13, 8.998558695971062171E-33, 38.00000000000000000 ) ) ;
#106 = APPROVAL ( #14, 'UNSPECIFIED' ) ;
#107 = VERTEX_POINT ( 'NONE', #203 ) ;
#108 = DIRECTION ( 'NONE',  ( -3.491481338843133355E-15, 1.224646799147353207E-16, -1.000000000000000000 ) ) ;
#109 = DIRECTION ( 'NONE',  ( 0.0000000000000000000, -1.000000000000000000, 0.0000000000000000000 ) ) ;
#110 = APPROVAL_PERSON_ORGANIZATION ( #9, #30, #151 ) ;
#111 = PLANE ( 'NONE',  #218 ) ;
#112 = SECURITY_CLASSIFICATION_LEVEL ( 'unclassified' ) ;
#113 = AXIS2_PLACEMENT_3D ( 'NONE', #183, #168, #73 ) ;
#114 = LOCAL_TIME ( 10, 45, 45.00000000000000000, #60 ) ;
#115 = CARTESIAN_POINT ( 'NONE',  ( 1.326762908760390423E-13, 1.199999999999993294, 38.00000000000000000 ) ) ;
#116 = EDGE_CURVE ( 'NONE', #107, #107, #153, .T. ) ;
#117 = APPLICATION_PROTOCOL_DEFINITION ( 'international standard', 'config_control_design', 1994, #166 ) ;
#118 = CC_DESIGN_DATE_AND_TIME_ASSIGNMENT ( #211, #33, ( #98 ) ) ;
#119 = AXIS2_PLACEMENT_3D ( 'NONE', #17, #69, #86 ) ;
#120 = PERSON_AND_ORGANIZATION ( #65, #44 ) ;
#121 = ORIENTED_EDGE ( 'NONE', *, *, #19, .T. ) ;
#122 = EDGE_LOOP ( 'NONE', ( #213 ) ) ;
#123 = AXIS2_PLACEMENT_3D ( 'NONE', #1, #197, #147 ) ;
#124 = EDGE_LOOP ( 'NONE', ( #32 ) ) ;
#125 = ORIENTED_EDGE ( 'NONE', *, *, #184, .T. ) ;
#126 = DIRECTION ( 'NONE',  ( -3.491481338843133355E-15, 1.224646799147353207E-16, -1.000000000000000000 ) ) ;
#127 = PLANE ( 'NONE',  #174 ) ;
#128 = DIRECTION ( 'NONE',  ( -4.349271186581348860E-31, -1.000000000000000000, -1.227517819005651059E-16 ) ) ;
#129 = CC_DESIGN_PERSON_AND_ORGANIZATION_ASSIGNMENT ( #79, #99, ( #157 ) ) ;
#130 = DIRECTION ( 'NONE',  ( 3.491481338843133355E-15, -1.227517819005651059E-16, 1.000000000000000000 ) ) ;
#131 = FACE_OUTER_BOUND ( 'NONE', #104, .T. ) ;
#132 = CALENDAR_DATE ( 2021, 1, 11 ) ;
#133 = DATE_AND_TIME ( #101, #71 ) ;
#134 = CC_DESIGN_PERSON_AND_ORGANIZATION_ASSIGNMENT ( #41, #220, ( #36 ) ) ;
#135 =( LENGTH_UNIT ( ) NAMED_UNIT ( * ) SI_UNIT ( .MILLI., .METRE. ) );
#136 = CIRCLE ( 'NONE', #155, 0.7499999999999997780 ) ;
#137 = LOCAL_TIME ( 10, 45, 45.00000000000000000, #45 ) ;
#138 = EDGE_LOOP ( 'NONE', ( #34 ) ) ;
#139 = ORIENTED_EDGE ( 'NONE', *, *, #19, .F. ) ;
#140 = CIRCLE ( 'NONE', #18, 0.7499999999999997780 ) ;
#141 = EDGE_LOOP ( 'NONE', ( #85 ) ) ;
#142 = ADVANCED_FACE ( 'NONE', ( #216 ), #198, .F. ) ;
#143 = VERTEX_POINT ( 'NONE', #214 ) ;
#144 = DIRECTION ( 'NONE',  ( -3.491481338843133355E-15, 1.224646799147353207E-16, -1.000000000000000000 ) ) ;
#145 = FACE_OUTER_BOUND ( 'NONE', #141, .T. ) ;
#146 = CC_DESIGN_PERSON_AND_ORGANIZATION_ASSIGNMENT ( #171, #202, ( #98 ) ) ;
#147 = DIRECTION ( 'NONE',  ( -4.275831445896958607E-31, -1.000000000000000000, -1.224646799147353207E-16 ) ) ;
#148 = CARTESIAN_POINT ( 'NONE',  ( 2.444036937190193033E-14, -8.592624733039555931E-16, 6.999999999999999112 ) ) ;
#149 = APPROVAL_PERSON_ORGANIZATION ( #29, #106, #82 ) ;
#150 = CC_DESIGN_PERSON_AND_ORGANIZATION_ASSIGNMENT ( #175, #187, ( #61 ) ) ;
#151 = APPROVAL_ROLE ( '' ) ;
#152 = MECHANICAL_CONTEXT ( 'NONE', #200, 'mechanical' ) ;
#153 = CIRCLE ( 'NONE', #23, 0.7499999999999997780 ) ;
#154 = APPROVAL_STATUS ( 'not_yet_approved' ) ;
#155 = AXIS2_PLACEMENT_3D ( 'NONE', #22, #40, #21 ) ;
#156 = CC_DESIGN_APPROVAL ( #30, ( #36 ) ) ;
#157 = PRODUCT_DEFINITION ( 'UNKNOWN', '', #36, #64 ) ;
#158 = DATE_AND_TIME ( #47, #205 ) ;
#159 = APPROVAL_ROLE ( '' ) ;
#160 = CYLINDRICAL_SURFACE ( 'NONE', #13, 1.499999999999995781 ) ;
#161 = SHAPE_DEFINITION_REPRESENTATION ( #180, #223 ) ;
#162 = ADVANCED_FACE ( 'NONE', ( #145, #131 ), #49, .F. ) ;
#163 = CIRCLE ( 'NONE', #97, 1.499999999999995781 ) ;
#164 = FACE_OUTER_BOUND ( 'NONE', #212, .T. ) ;
#165 = CARTESIAN_POINT ( 'NONE',  ( 2.444036937190193349E-14, 1.124819836996387322E-32, 7.000000000000000000 ) ) ;
#166 = APPLICATION_CONTEXT ( 'configuration controlled 3d designs of mechanical parts and assemblies' ) ;
#167 = MANIFOLD_SOLID_BREP ( 'Corps-Déplacer/Copier1[1]', #55 ) ;
#168 = DIRECTION ( 'NONE',  ( -3.491481338843133355E-15, 1.224646799147353207E-16, -1.000000000000000000 ) ) ;
#169 = FACE_OUTER_BOUND ( 'NONE', #122, .T. ) ;
#170 = COORDINATED_UNIVERSAL_TIME_OFFSET ( 1, 0, .AHEAD. ) ;
#171 = PERSON_AND_ORGANIZATION ( #65, #44 ) ;
#172 =( NAMED_UNIT ( * ) PLANE_ANGLE_UNIT ( ) SI_UNIT ( $, .RADIAN. ) );
#173 = COORDINATED_UNIVERSAL_TIME_OFFSET ( 1, 0, .AHEAD. ) ;
#174 = AXIS2_PLACEMENT_3D ( 'NONE', #165, #95, #93 ) ;
#175 = PERSON_AND_ORGANIZATION ( #65, #44 ) ;
#176 = APPROVAL_DATE_TIME ( #158, #88 ) ;
#177 = ORIENTED_EDGE ( 'NONE', *, *, #66, .F. ) ;
#178 =( GEOMETRIC_REPRESENTATION_CONTEXT ( 3 ) GLOBAL_UNCERTAINTY_ASSIGNED_CONTEXT ( ( #11 ) ) GLOBAL_UNIT_ASSIGNED_CONTEXT ( ( #135, #172, #10 ) ) REPRESENTATION_CONTEXT ( 'NONE', 'WORKASPACE' ) );
#179 = PLANE ( 'NONE',  #193 ) ;
#180 = PRODUCT_DEFINITION_SHAPE ( 'NONE', 'NONE',  #157 ) ;
#181 = DIRECTION ( 'NONE',  ( 4.275831445896958607E-31, 1.000000000000000000, 1.224646799147353207E-16 ) ) ;
#182 = CARTESIAN_POINT ( 'NONE',  ( -6.413731847436034514E-31, 0.0000000000000000000, -1.836965810494968570E-16 ) ) ;
#183 = CARTESIAN_POINT ( 'NONE',  ( 1.326762908760390423E-13, -4.653657836759941941E-15, 38.00000000000000000 ) ) ;
#184 = EDGE_CURVE ( 'NONE', #80, #80, #140, .T. ) ;
#185 = DATE_AND_TIME ( #188, #46 ) ;
#186 = AXIS2_PLACEMENT_3D ( 'NONE', #182, #91, #39 ) ;
#187 = PERSON_AND_ORGANIZATION_ROLE ( 'design_owner' ) ;
#188 = CALENDAR_DATE ( 2021, 1, 11 ) ;
#189 = AXIS2_PLACEMENT_3D ( 'NONE', #219, #126, #192 ) ;
#190 = ADVANCED_FACE ( 'NONE', ( #24 ), #127, .T. ) ;
#191 = ORIENTED_EDGE ( 'NONE', *, *, #195, .T. ) ;
#192 = DIRECTION ( 'NONE',  ( 0.0000000000000000000, 1.000000000000000000, 0.0000000000000000000 ) ) ;
#193 = AXIS2_PLACEMENT_3D ( 'NONE', #7, #217, #6 ) ;
#194 = CARTESIAN_POINT ( 'NONE',  ( 3.624834039502502580E-14, 1.499999999999995337, 10.38193731461716673 ) ) ;
#195 = EDGE_CURVE ( 'NONE', #63, #63, #204, .T. ) ;
#196 = CARTESIAN_POINT ( 'NONE',  ( -6.428783337233478168E-31, -0.7499999999999997780, -1.841276728508476095E-16 ) ) ;
#197 = DIRECTION ( 'NONE',  ( 3.491481338843133355E-15, -1.224646799147353207E-16, 1.000000000000000000 ) ) ;
#198 = PLANE ( 'NONE',  #123 ) ;
#199 = APPROVAL_DATE_TIME ( #28, #30 ) ;
#200 = APPLICATION_CONTEXT ( 'configuration controlled 3d designs of mechanical parts and assemblies' ) ;
#201 = PERSON_AND_ORGANIZATION ( #65, #44 ) ;
#202 = PERSON_AND_ORGANIZATION_ROLE ( 'classification_officer' ) ;
#203 = CARTESIAN_POINT ( 'NONE',  ( 2.444036937190193033E-14, -0.7500000000000006661, 6.999999999999999112 ) ) ;
#204 = CIRCLE ( 'NONE', #113, 1.199999999999997957 ) ;
#205 = LOCAL_TIME ( 10, 45, 45.00000000000000000, #68 ) ;
#206 = APPROVAL_STATUS ( 'not_yet_approved' ) ;
#207 = EDGE_LOOP ( 'NONE', ( #102 ) ) ;
#208 = ADVANCED_FACE ( 'NONE', ( #74, #25 ), #8, .T. ) ;
#209 = EDGE_LOOP ( 'NONE', ( #139 ) ) ;
#210 = CLOSED_SHELL ( 'NONE', ( #190, #94, #142 ) ) ;
#211 = DATE_AND_TIME ( #100, #137 ) ;
#212 = EDGE_LOOP ( 'NONE', ( #177 ) ) ;
#213 = ORIENTED_EDGE ( 'NONE', *, *, #59, .T. ) ;
#214 = CARTESIAN_POINT ( 'NONE',  ( 1.316288464743861212E-13, 1.499999999999993117, 37.69999999999999574 ) ) ;
#215 = AXIS2_PLACEMENT_3D ( 'NONE', #35, #20, #128 ) ;
#216 = FACE_OUTER_BOUND ( 'NONE', #138, .T. ) ;
#217 = DIRECTION ( 'NONE',  ( 3.491481338843133355E-15, -1.224646799147353207E-16, 1.000000000000000000 ) ) ;
#218 = AXIS2_PLACEMENT_3D ( 'NONE', #105, #108, #181 ) ;
#219 = CARTESIAN_POINT ( 'NONE',  ( 1.326762908760390423E-13, -4.653657836759941941E-15, 38.00000000000000000 ) ) ;
#220 = PERSON_AND_ORGANIZATION_ROLE ( 'creator' ) ;
#221 = ORIENTED_EDGE ( 'NONE', *, *, #184, .F. ) ;
#222 = CARTESIAN_POINT ( 'NONE',  ( 0.0000000000000000000, 0.0000000000000000000, 0.0000000000000000000 ) ) ;
#223 = ADVANCED_BREP_SHAPE_REPRESENTATION ( '57176', ( #167, #87, #72 ), #178 ) ;
ENDSEC;
END-ISO-10303-21;
