ISO-10303-21;
HEADER;
FILE_DESCRIPTION (( 'STEP AP203' ),
    '1' );
FILE_NAME ('57175.step',
    '2021-11-01T09:45:44',
    ( '' ),
    ( '' ),
    'SwSTEP 2.0',
    'SolidWorks 2019',
    '' );
FILE_SCHEMA (( 'CONFIG_CONTROL_DESIGN' ));
ENDSEC;

DATA;
#1 = VERTEX_POINT ( 'NONE', #132 ) ;
#2 = DIRECTION ( 'NONE',  ( 3.491481338843133355E-15, -1.219242935835426903E-16, 1.000000000000000000 ) ) ;
#3 = PRODUCT_DEFINITION_FORMATION_WITH_SPECIFIED_SOURCE ( 'ANY', '', #15, .NOT_KNOWN. ) ;
#4 = APPROVAL_DATE_TIME ( #60, #208 ) ;
#5 = CC_DESIGN_APPROVAL ( #121, ( #3 ) ) ;
#6 = PERSON_AND_ORGANIZATION_ROLE ( 'design_supplier' ) ;
#7 = ORIENTED_EDGE ( 'NONE', *, *, #8, .T. ) ;
#8 = EDGE_CURVE ( 'NONE', #110, #110, #33, .T. ) ;
#9 = ORIENTED_EDGE ( 'NONE', *, *, #90, .T. ) ;
#10 = EDGE_LOOP ( 'NONE', ( #42 ) ) ;
#11 = AXIS2_PLACEMENT_3D ( 'NONE', #222, #219, #131 ) ;
#12 = PLANE ( 'NONE',  #146 ) ;
#13 = DIRECTION ( 'NONE',  ( 3.491481338843133355E-15, -1.224646799147353207E-16, 1.000000000000000000 ) ) ;
#14 = FACE_OUTER_BOUND ( 'NONE', #115, .T. ) ;
#15 = PRODUCT ( '57175', '57175', '', ( #136 ) ) ;
#16 = DIRECTION ( 'NONE',  ( 3.491481338843133355E-15, -1.219242935835426903E-16, 1.000000000000000000 ) ) ;
#17 = CC_DESIGN_PERSON_AND_ORGANIZATION_ASSIGNMENT ( #54, #151, ( #70 ) ) ;
#18 = DIRECTION ( 'NONE',  ( 0.0000000000000000000, 1.000000000000000000, 0.0000000000000000000 ) ) ;
#19 = CIRCLE ( 'NONE', #161, 0.7931483474218603558 ) ;
#20 = VERTEX_POINT ( 'NONE', #98 ) ;
#21 = CIRCLE ( 'NONE', #49, 1.499999999999995781 ) ;
#22 = DATE_AND_TIME ( #193, #38 ) ;
#23 = DATE_AND_TIME ( #100, #200 ) ;
#24 = ADVANCED_FACE ( 'NONE', ( #108, #14 ), #220, .T. ) ;
#25 = PERSON_AND_ORGANIZATION_ROLE ( 'classification_officer' ) ;
#26 = FACE_OUTER_BOUND ( 'NONE', #229, .T. ) ;
#27 = AXIS2_PLACEMENT_3D ( 'NONE', #206, #13, #89 ) ;
#28 = APPROVAL_PERSON_ORGANIZATION ( #190, #121, #78 ) ;
#29 = ADVANCED_FACE ( 'NONE', ( #189 ), #143, .F. ) ;
#30 = DIRECTION ( 'NONE',  ( 0.0000000000000000000, -1.000000000000000000, 0.0000000000000000000 ) ) ;
#31 = DIRECTION ( 'NONE',  ( 3.491481338843133355E-15, -1.219242935835426903E-16, 1.000000000000000000 ) ) ;
#32 = DIRECTION ( 'NONE',  ( 4.275831445896958607E-31, 1.000000000000000000, 1.224646799147353207E-16 ) ) ;
#33 = CIRCLE ( 'NONE', #111, 0.7249999999999998668 ) ;
#34 = LOCAL_TIME ( 10, 45, 44.00000000000000000, #82 ) ;
#35 = CARTESIAN_POINT ( 'NONE',  ( 2.149231745004345933E-14, -7.505225914906510344E-16, 6.155644371040722262 ) ) ;
#36 = PERSON ( 'UNSPECIFIED', 'UNSPECIFIED', 'UNSPECIFIED', ('UNSPECIFIED'), ('UNSPECIFIED'), ('UNSPECIFIED') ) ;
#37 = DIRECTION ( 'NONE',  ( 3.491481338843133355E-15, -1.224646799147353207E-16, 1.000000000000000000 ) ) ;
#38 = LOCAL_TIME ( 10, 45, 44.00000000000000000, #58 ) ;
#39 = DIRECTION ( 'NONE',  ( 1.000000000000000000, 0.0000000000000000000, 0.0000000000000000000 ) ) ;
#40 = APPROVAL_STATUS ( 'not_yet_approved' ) ;
#41 = SHAPE_DEFINITION_REPRESENTATION ( #88, #137 ) ;
#42 = ORIENTED_EDGE ( 'NONE', *, *, #55, .F. ) ;
#43 = CC_DESIGN_PERSON_AND_ORGANIZATION_ASSIGNMENT ( #181, #157, ( #3 ) ) ;
#44 = LOCAL_TIME ( 10, 45, 44.00000000000000000, #63 ) ;
#45 = EDGE_LOOP ( 'NONE', ( #138 ) ) ;
#46 = DIRECTION ( 'NONE',  ( -3.491481338843133355E-15, 1.224646799147353207E-16, -1.000000000000000000 ) ) ;
#47 = ADVANCED_FACE ( 'NONE', ( #48, #106 ), #61, .F. ) ;
#48 = FACE_OUTER_BOUND ( 'NONE', #80, .T. ) ;
#49 = AXIS2_PLACEMENT_3D ( 'NONE', #35, #202, #166 ) ;
#50 = DIRECTION ( 'NONE',  ( 3.491481338843133355E-15, -1.219242935835426903E-16, 1.000000000000000000 ) ) ;
#51 = CARTESIAN_POINT ( 'NONE',  ( 1.326762908760390423E-13, 8.998558695971062171E-33, 38.00000000000000000 ) ) ;
#52 = DIRECTION ( 'NONE',  ( -4.256963957985708889E-31, -1.000000000000000000, -1.219242935835426903E-16 ) ) ;
#53 = CALENDAR_DATE ( 2021, 1, 11 ) ;
#54 = PERSON_AND_ORGANIZATION ( #36, #76 ) ;
#55 = EDGE_CURVE ( 'NONE', #96, #96, #139, .T. ) ;
#56 =( GEOMETRIC_REPRESENTATION_CONTEXT ( 3 ) GLOBAL_UNCERTAINTY_ASSIGNED_CONTEXT ( ( #235 ) ) GLOBAL_UNIT_ASSIGNED_CONTEXT ( ( #211, #93, #174 ) ) REPRESENTATION_CONTEXT ( 'NONE', 'WORKASPACE' ) );
#57 = MANIFOLD_SOLID_BREP ( 'Corps-Déplacer/Copier1[1]', #184 ) ;
#58 = COORDINATED_UNIVERSAL_TIME_OFFSET ( 1, 0, .AHEAD. ) ;
#59 = ADVANCED_FACE ( 'NONE', ( #72, #237 ), #130, .T. ) ;
#60 = DATE_AND_TIME ( #231, #44 ) ;
#61 = TOROIDAL_SURFACE ( 'NONE', #69, 2.725000000000000977, 2.000000000000000444 ) ;
#62 = DATE_TIME_ROLE ( 'classification_date' ) ;
#63 = COORDINATED_UNIVERSAL_TIME_OFFSET ( 1, 0, .AHEAD. ) ;
#64 = ORIENTED_EDGE ( 'NONE', *, *, #112, .T. ) ;
#65 = ORIENTED_EDGE ( 'NONE', *, *, #133, .F. ) ;
#66 = CARTESIAN_POINT ( 'NONE',  ( 0.0000000000000000000, 0.0000000000000000000, 0.0000000000000000000 ) ) ;
#67 = CARTESIAN_POINT ( 'NONE',  ( 3.452270320028498082E-14, -1.205550249821388471E-15, 9.887695178609698488 ) ) ;
#68 = DIRECTION ( 'NONE',  ( -3.491481338843133355E-15, 1.224646799147353207E-16, -1.000000000000000000 ) ) ;
#69 = AXIS2_PLACEMENT_3D ( 'NONE', #169, #31, #188 ) ;
#70 = PRODUCT_DEFINITION ( 'UNKNOWN', '', #3, #122 ) ;
#71 = DIRECTION ( 'NONE',  ( 3.491481338843133355E-15, -1.224646799147353207E-16, 1.000000000000000000 ) ) ;
#72 = FACE_BOUND ( 'NONE', #45, .T. ) ;
#73 = DATE_AND_TIME ( #53, #86 ) ;
#74 = ADVANCED_FACE ( 'NONE', ( #128, #26 ), #92, .T. ) ;
#75 = CARTESIAN_POINT ( 'NONE',  ( 0.0000000000000000000, 0.0000000000000000000, 0.0000000000000000000 ) ) ;
#76 = ORGANIZATION ( 'UNSPECIFIED', 'UNSPECIFIED', '' ) ;
#77 = CARTESIAN_POINT ( 'NONE',  ( 1.326762908760390423E-13, 1.199999999999993294, 38.00000000000000000 ) ) ;
#78 = APPROVAL_ROLE ( '' ) ;
#79 = SECURITY_CLASSIFICATION_LEVEL ( 'unclassified' ) ;
#80 = EDGE_LOOP ( 'NONE', ( #120 ) ) ;
#81 = APPROVAL_PERSON_ORGANIZATION ( #159, #208, #163 ) ;
#82 = COORDINATED_UNIVERSAL_TIME_OFFSET ( 1, 0, .AHEAD. ) ;
#83 = ORIENTED_EDGE ( 'NONE', *, *, #8, .F. ) ;
#84 = CIRCLE ( 'NONE', #94, 1.499999999999997558 ) ;
#85 = CC_DESIGN_PERSON_AND_ORGANIZATION_ASSIGNMENT ( #196, #6, ( #3 ) ) ;
#86 = LOCAL_TIME ( 10, 45, 44.00000000000000000, #223 ) ;
#87 = FACE_OUTER_BOUND ( 'NONE', #236, .T. ) ;
#88 = PRODUCT_DEFINITION_SHAPE ( 'NONE', 'NONE',  #70 ) ;
#89 = DIRECTION ( 'NONE',  ( -4.275831445896958607E-31, -1.000000000000000000, -1.224646799147353207E-16 ) ) ;
#90 = EDGE_CURVE ( 'NONE', #1, #1, #21, .T. ) ;
#91 = CARTESIAN_POINT ( 'NONE',  ( -2.232765386889995905E-30, 7.796929615684219475E-32, -6.394894230280491617E-16 ) ) ;
#92 = CYLINDRICAL_SURFACE ( 'NONE', #199, 1.499999999999995781 ) ;
#93 =( NAMED_UNIT ( * ) PLANE_ANGLE_UNIT ( ) SI_UNIT ( $, .RADIAN. ) );
#94 = AXIS2_PLACEMENT_3D ( 'NONE', #105, #185, #198 ) ;
#95 = CC_DESIGN_SECURITY_CLASSIFICATION ( #147, ( #3 ) ) ;
#96 = VERTEX_POINT ( 'NONE', #77 ) ;
#97 = PLANE ( 'NONE',  #126 ) ;
#98 = CARTESIAN_POINT ( 'NONE',  ( 1.316288464743861212E-13, 1.499999999999993117, 37.69999999999999574 ) ) ;
#99 = APPROVAL_DATE_TIME ( #22, #158 ) ;
#100 = CALENDAR_DATE ( 2021, 1, 11 ) ;
#101 = COORDINATED_UNIVERSAL_TIME_OFFSET ( 1, 0, .AHEAD. ) ;
#102 = CIRCLE ( 'NONE', #168, 0.7249999999999998668 ) ;
#103 = DIRECTION ( 'NONE',  ( 4.275831445896958607E-31, 1.000000000000000000, 1.224646799147353207E-16 ) ) ;
#104 = FACE_OUTER_BOUND ( 'NONE', #117, .T. ) ;
#105 = CARTESIAN_POINT ( 'NONE',  ( 1.316288464743861212E-13, -4.616918432785521081E-15, 37.69999999999999574 ) ) ;
#106 = FACE_OUTER_BOUND ( 'NONE', #215, .T. ) ;
#107 = CLOSED_SHELL ( 'NONE', ( #201, #24, #179 ) ) ;
#108 = FACE_OUTER_BOUND ( 'NONE', #182, .T. ) ;
#109 = DATE_TIME_ROLE ( 'creation_date' ) ;
#110 = VERTEX_POINT ( 'NONE', #156 ) ;
#111 = AXIS2_PLACEMENT_3D ( 'NONE', #218, #129, #127 ) ;
#112 = EDGE_CURVE ( 'NONE', #135, #135, #210, .T. ) ;
#113 = PERSON_AND_ORGANIZATION ( #36, #76 ) ;
#114 = CONICAL_SURFACE ( 'NONE', #11, 1.199999999999997957, 0.7853981633974450594 ) ;
#115 = EDGE_LOOP ( 'NONE', ( #83 ) ) ;
#116 = EDGE_LOOP ( 'NONE', ( #9 ) ) ;
#117 = EDGE_LOOP ( 'NONE', ( #7 ) ) ;
#118 = APPROVAL_PERSON_ORGANIZATION ( #113, #158, #194 ) ;
#119 = DATE_AND_TIME ( #228, #34 ) ;
#120 = ORIENTED_EDGE ( 'NONE', *, *, #176, .T. ) ;
#121 = APPROVAL ( #152, 'UNSPECIFIED' ) ;
#122 = DESIGN_CONTEXT ( 'detailed design', #125, 'design' ) ;
#123 = APPROVAL_STATUS ( 'not_yet_approved' ) ;
#124 = DIRECTION ( 'NONE',  ( -4.256963957985707137E-31, -1.000000000000000000, -1.219242935835427149E-16 ) ) ;
#125 = APPLICATION_CONTEXT ( 'configuration controlled 3d designs of mechanical parts and assemblies' ) ;
#126 = AXIS2_PLACEMENT_3D ( 'NONE', #207, #37, #209 ) ;
#127 = DIRECTION ( 'NONE',  ( 0.0000000000000000000, -1.000000000000000000, 0.0000000000000000000 ) ) ;
#128 = FACE_OUTER_BOUND ( 'NONE', #234, .T. ) ;
#129 = DIRECTION ( 'NONE',  ( 3.491481338843133355E-15, -1.219242935835426903E-16, 1.000000000000000000 ) ) ;
#130 = CONICAL_SURFACE ( 'NONE', #180, 2.499999999999996447, 0.2617993877991430240 ) ;
#131 = DIRECTION ( 'NONE',  ( 0.0000000000000000000, 1.000000000000000000, 0.0000000000000000000 ) ) ;
#132 = CARTESIAN_POINT ( 'NONE',  ( 2.149231745004345933E-14, -1.499999999999996447, 6.155644371040722262 ) ) ;
#133 = EDGE_CURVE ( 'NONE', #20, #20, #84, .T. ) ;
#134 = DIRECTION ( 'NONE',  ( 0.0000000000000000000, 0.0000000000000000000, 1.000000000000000000 ) ) ;
#135 = VERTEX_POINT ( 'NONE', #153 ) ;
#136 = MECHANICAL_CONTEXT ( 'NONE', #172, 'mechanical' ) ;
#137 = ADVANCED_BREP_SHAPE_REPRESENTATION ( '57175', ( #57, #142, #155 ), #56 ) ;
#138 = ORIENTED_EDGE ( 'NONE', *, *, #230, .T. ) ;
#139 = CIRCLE ( 'NONE', #204, 1.199999999999997957 ) ;
#140 = ORIENTED_EDGE ( 'NONE', *, *, #176, .F. ) ;
#141 = ORIENTED_EDGE ( 'NONE', *, *, #133, .T. ) ;
#142 = MANIFOLD_SOLID_BREP ( 'Corps-Déplacer/Copier1[2]', #107 ) ;
#143 = PLANE ( 'NONE',  #214 ) ;
#144 = CARTESIAN_POINT ( 'NONE',  ( -6.413803915257455362E-31, 2.249659577954771652E-32, -1.836986451539392583E-16 ) ) ;
#145 = CC_DESIGN_PERSON_AND_ORGANIZATION_ASSIGNMENT ( #183, #25, ( #147 ) ) ;
#146 = AXIS2_PLACEMENT_3D ( 'NONE', #144, #71, #149 ) ;
#147 = SECURITY_CLASSIFICATION ( '', '', #79 ) ;
#148 = CARTESIAN_POINT ( 'NONE',  ( 1.047444401652939849E-14, -3.657728807506280215E-16, 2.999999999999999556 ) ) ;
#149 = DIRECTION ( 'NONE',  ( -4.275831445896958607E-31, -1.000000000000000000, -1.224646799147353207E-16 ) ) ;
#150 = DIRECTION ( 'NONE',  ( 3.491481338843133355E-15, -1.219242935835426903E-16, 1.000000000000000000 ) ) ;
#151 = PERSON_AND_ORGANIZATION_ROLE ( 'creator' ) ;
#152 = APPROVAL_STATUS ( 'not_yet_approved' ) ;
#153 = CARTESIAN_POINT ( 'NONE',  ( -2.541395273843959661E-30, -0.7249999999999999778, -7.278845358761175777E-16 ) ) ;
#154 = CARTESIAN_POINT ( 'NONE',  ( 1.228176774875465645E-14, -4.288855392308103452E-16, 3.517638090205028600 ) ) ;
#155 = AXIS2_PLACEMENT_3D ( 'NONE', #75, #134, #39 ) ;
#156 = CARTESIAN_POINT ( 'NONE',  ( 1.047444401652939849E-14, -0.7250000000000001998, 2.999999999999999556 ) ) ;
#157 = PERSON_AND_ORGANIZATION_ROLE ( 'creator' ) ;
#158 = APPROVAL ( #40, 'UNSPECIFIED' ) ;
#159 = PERSON_AND_ORGANIZATION ( #36, #76 ) ;
#160 = EDGE_LOOP ( 'NONE', ( #140 ) ) ;
#161 = AXIS2_PLACEMENT_3D ( 'NONE', #154, #2, #224 ) ;
#162 = CC_DESIGN_PERSON_AND_ORGANIZATION_ASSIGNMENT ( #213, #242, ( #15 ) ) ;
#163 = APPROVAL_ROLE ( '' ) ;
#164 = ORIENTED_EDGE ( 'NONE', *, *, #112, .F. ) ;
#165 = AXIS2_PLACEMENT_3D ( 'NONE', #91, #150, #124 ) ;
#166 = DIRECTION ( 'NONE',  ( 0.0000000000000000000, -1.000000000000000000, 0.0000000000000000000 ) ) ;
#167 = FACE_OUTER_BOUND ( 'NONE', #160, .T. ) ;
#168 = AXIS2_PLACEMENT_3D ( 'NONE', #148, #240, #30 ) ;
#169 = CARTESIAN_POINT ( 'NONE',  ( 1.047444401652939849E-14, -4.336808689942017736E-16, 2.999999999999999556 ) ) ;
#170 = CC_DESIGN_DATE_AND_TIME_ASSIGNMENT ( #73, #109, ( #70 ) ) ;
#171 = FACE_OUTER_BOUND ( 'NONE', #232, .T. ) ;
#172 = APPLICATION_CONTEXT ( 'configuration controlled 3d designs of mechanical parts and assemblies' ) ;
#173 = DIRECTION ( 'NONE',  ( -3.491481338843133355E-15, 1.224646799147353207E-16, -1.000000000000000000 ) ) ;
#174 =( NAMED_UNIT ( * ) SI_UNIT ( $, .STERADIAN. ) SOLID_ANGLE_UNIT ( ) );
#175 = CARTESIAN_POINT ( 'NONE',  ( 1.047444401652939849E-14, -0.7250000000000001998, 2.999999999999999556 ) ) ;
#176 = EDGE_CURVE ( 'NONE', #192, #192, #102, .T. ) ;
#177 = VERTEX_POINT ( 'NONE', #227 ) ;
#178 = APPLICATION_PROTOCOL_DEFINITION ( 'international standard', 'config_control_design', 1994, #172 ) ;
#179 = ADVANCED_FACE ( 'NONE', ( #87 ), #12, .F. ) ;
#180 = AXIS2_PLACEMENT_3D ( 'NONE', #67, #16, #203 ) ;
#181 = PERSON_AND_ORGANIZATION ( #36, #76 ) ;
#182 = EDGE_LOOP ( 'NONE', ( #64 ) ) ;
#183 = PERSON_AND_ORGANIZATION ( #36, #76 ) ;
#184 = CLOSED_SHELL ( 'NONE', ( #74, #191, #29, #59, #47, #212 ) ) ;
#185 = DIRECTION ( 'NONE',  ( -3.491481338843133355E-15, 1.224646799147353207E-16, -1.000000000000000000 ) ) ;
#186 = PLANE ( 'NONE',  #27 ) ;
#187 = CC_DESIGN_APPROVAL ( #208, ( #147 ) ) ;
#188 = DIRECTION ( 'NONE',  ( -4.313165639262448601E-31, -1.000000000000000000, -1.219242935835426903E-16 ) ) ;
#189 = FACE_OUTER_BOUND ( 'NONE', #10, .T. ) ;
#190 = PERSON_AND_ORGANIZATION ( #36, #76 ) ;
#191 = ADVANCED_FACE ( 'NONE', ( #171, #241 ), #114, .T. ) ;
#192 = VERTEX_POINT ( 'NONE', #175 ) ;
#193 = CALENDAR_DATE ( 2021, 1, 11 ) ;
#194 = APPROVAL_ROLE ( '' ) ;
#195 = EDGE_LOOP ( 'NONE', ( #216 ) ) ;
#196 = PERSON_AND_ORGANIZATION ( #36, #76 ) ;
#197 = ORIENTED_EDGE ( 'NONE', *, *, #90, .F. ) ;
#198 = DIRECTION ( 'NONE',  ( 0.0000000000000000000, 1.000000000000000000, 0.0000000000000000000 ) ) ;
#199 = AXIS2_PLACEMENT_3D ( 'NONE', #66, #173, #103 ) ;
#200 = LOCAL_TIME ( 10, 45, 44.00000000000000000, #101 ) ;
#201 = ADVANCED_FACE ( 'NONE', ( #104 ), #186, .T. ) ;
#202 = DIRECTION ( 'NONE',  ( -3.491481338843133355E-15, 1.219242935835426903E-16, -1.000000000000000000 ) ) ;
#203 = DIRECTION ( 'NONE',  ( 0.0000000000000000000, -1.000000000000000000, 0.0000000000000000000 ) ) ;
#204 = AXIS2_PLACEMENT_3D ( 'NONE', #238, #68, #18 ) ;
#205 = AXIS2_PLACEMENT_3D ( 'NONE', #221, #50, #52 ) ;
#206 = CARTESIAN_POINT ( 'NONE',  ( 1.047444401652940007E-14, 1.124819836996387869E-32, 3.000000000000000000 ) ) ;
#207 = CARTESIAN_POINT ( 'NONE',  ( 1.047444401652940007E-14, 1.124819836996387869E-32, 3.000000000000000000 ) ) ;
#208 = APPROVAL ( #123, 'UNSPECIFIED' ) ;
#209 = DIRECTION ( 'NONE',  ( -4.275831445896958607E-31, -1.000000000000000000, -1.224646799147353207E-16 ) ) ;
#210 = CIRCLE ( 'NONE', #165, 0.7249999999999999778 ) ;
#211 =( LENGTH_UNIT ( ) NAMED_UNIT ( * ) SI_UNIT ( .MILLI., .METRE. ) );
#212 = ADVANCED_FACE ( 'NONE', ( #167 ), #97, .F. ) ;
#213 = PERSON_AND_ORGANIZATION ( #36, #76 ) ;
#214 = AXIS2_PLACEMENT_3D ( 'NONE', #51, #46, #32 ) ;
#215 = EDGE_LOOP ( 'NONE', ( #217 ) ) ;
#216 = ORIENTED_EDGE ( 'NONE', *, *, #55, .T. ) ;
#217 = ORIENTED_EDGE ( 'NONE', *, *, #230, .F. ) ;
#218 = CARTESIAN_POINT ( 'NONE',  ( 1.047444401652939849E-14, -3.657728807506280215E-16, 2.999999999999999556 ) ) ;
#219 = DIRECTION ( 'NONE',  ( -3.491481338843133355E-15, 1.224646799147353207E-16, -1.000000000000000000 ) ) ;
#220 = CYLINDRICAL_SURFACE ( 'NONE', #205, 0.7249999999999999778 ) ;
#221 = CARTESIAN_POINT ( 'NONE',  ( 0.0000000000000000000, 0.0000000000000000000, 0.0000000000000000000 ) ) ;
#222 = CARTESIAN_POINT ( 'NONE',  ( 1.326762908760390423E-13, -4.653657836759941941E-15, 38.00000000000000000 ) ) ;
#223 = COORDINATED_UNIVERSAL_TIME_OFFSET ( 1, 0, .AHEAD. ) ;
#224 = DIRECTION ( 'NONE',  ( 0.0000000000000000000, -1.000000000000000000, 0.0000000000000000000 ) ) ;
#225 = PRODUCT_RELATED_PRODUCT_CATEGORY ( 'detail', '', ( #15 ) ) ;
#226 = APPLICATION_PROTOCOL_DEFINITION ( 'international standard', 'config_control_design', 1994, #125 ) ;
#227 = CARTESIAN_POINT ( 'NONE',  ( 1.228176774875465645E-14, -0.7931483474218607999, 3.517638090205028600 ) ) ;
#228 = CALENDAR_DATE ( 2021, 1, 11 ) ;
#229 = EDGE_LOOP ( 'NONE', ( #197 ) ) ;
#230 = EDGE_CURVE ( 'NONE', #177, #177, #19, .T. ) ;
#231 = CALENDAR_DATE ( 2021, 1, 11 ) ;
#232 = EDGE_LOOP ( 'NONE', ( #65 ) ) ;
#233 = APPROVAL_DATE_TIME ( #23, #121 ) ;
#234 = EDGE_LOOP ( 'NONE', ( #141 ) ) ;
#235 = UNCERTAINTY_MEASURE_WITH_UNIT (LENGTH_MEASURE( 1.000000000000000082E-05 ), #211, 'distance_accuracy_value', 'NONE');
#236 = EDGE_LOOP ( 'NONE', ( #164 ) ) ;
#237 = FACE_OUTER_BOUND ( 'NONE', #116, .T. ) ;
#238 = CARTESIAN_POINT ( 'NONE',  ( 1.326762908760390423E-13, -4.653657836759941941E-15, 38.00000000000000000 ) ) ;
#239 = CC_DESIGN_APPROVAL ( #158, ( #70 ) ) ;
#240 = DIRECTION ( 'NONE',  ( 3.491481338843133355E-15, -1.219242935835426903E-16, 1.000000000000000000 ) ) ;
#241 = FACE_BOUND ( 'NONE', #195, .T. ) ;
#242 = PERSON_AND_ORGANIZATION_ROLE ( 'design_owner' ) ;
#243 = CC_DESIGN_DATE_AND_TIME_ASSIGNMENT ( #119, #62, ( #147 ) ) ;
ENDSEC;
END-ISO-10303-21;
