ISO-10303-21;
HEADER;
FILE_DESCRIPTION (( 'STEP AP203' ),
    '1' );
FILE_NAME ('57174.step',
    '2021-11-01T09:45:44',
    ( '' ),
    ( '' ),
    'SwSTEP 2.0',
    'SolidWorks 2019',
    '' );
FILE_SCHEMA (( 'CONFIG_CONTROL_DESIGN' ));
ENDSEC;

DATA;
#1 = CARTESIAN_POINT ( 'NONE',  ( 1.158347148098602978E-14, -0.7431483474218607554, 3.317638090205028867 ) ) ;
#2 = APPLICATION_CONTEXT ( 'configuration controlled 3d designs of mechanical parts and assemblies' ) ;
#3 = PERSON_AND_ORGANIZATION_ROLE ( 'design_supplier' ) ;
#4 = EDGE_LOOP ( 'NONE', ( #202 ) ) ;
#5 = CALENDAR_DATE ( 2021, 1, 11 ) ;
#6 = CARTESIAN_POINT ( 'NONE',  ( 1.158347148098602978E-14, -4.045006805141017776E-16, 3.317638090205028867 ) ) ;
#7 = PERSON_AND_ORGANIZATION ( #50, #102 ) ;
#8 = PLANE ( 'NONE',  #216 ) ;
#9 = DIRECTION ( 'NONE',  ( -3.491481338843133355E-15, 1.224646799147353207E-16, -1.000000000000000000 ) ) ;
#10 = EDGE_CURVE ( 'NONE', #110, #110, #111, .T. ) ;
#11 = UNCERTAINTY_MEASURE_WITH_UNIT (LENGTH_MEASURE( 1.000000000000000082E-05 ), #183, 'distance_accuracy_value', 'NONE');
#12 = FACE_OUTER_BOUND ( 'NONE', #200, .T. ) ;
#13 = CYLINDRICAL_SURFACE ( 'NONE', #229, 0.6749999999999998224 ) ;
#14 = APPROVAL_DATE_TIME ( #221, #48 ) ;
#15 = APPLICATION_CONTEXT ( 'configuration controlled 3d designs of mechanical parts and assemblies' ) ;
#16 = AXIS2_PLACEMENT_3D ( 'NONE', #178, #81, #71 ) ;
#17 = CARTESIAN_POINT ( 'NONE',  ( 9.776147748760771817E-15, -0.6750000000000000444, 2.799999999999999378 ) ) ;
#18 = APPROVAL_ROLE ( '' ) ;
#19 = CARTESIAN_POINT ( 'NONE',  ( 0.0000000000000000000, 0.0000000000000000000, 0.0000000000000000000 ) ) ;
#20 = EDGE_LOOP ( 'NONE', ( #58 ) ) ;
#21 = EDGE_CURVE ( 'NONE', #201, #201, #46, .T. ) ;
#22 = PRODUCT_DEFINITION_FORMATION_WITH_SPECIFIED_SOURCE ( 'ANY', '', #181, .NOT_KNOWN. ) ;
#23 = DIRECTION ( 'NONE',  ( 0.0000000000000000000, 1.000000000000000000, 0.0000000000000000000 ) ) ;
#24 = FACE_BOUND ( 'NONE', #168, .T. ) ;
#25 = PERSON_AND_ORGANIZATION ( #50, #102 ) ;
#26 = CC_DESIGN_PERSON_AND_ORGANIZATION_ASSIGNMENT ( #7, #3, ( #22 ) ) ;
#27 = DESIGN_CONTEXT ( 'detailed design', #15, 'design' ) ;
#28 = DIRECTION ( 'NONE',  ( -3.491481338843133355E-15, 1.224646799147353207E-16, -1.000000000000000000 ) ) ;
#29 = FACE_OUTER_BOUND ( 'NONE', #204, .T. ) ;
#30 = CARTESIAN_POINT ( 'NONE',  ( 1.316288464743861212E-13, -4.616918432785521081E-15, 37.69999999999999574 ) ) ;
#31 = APPLICATION_PROTOCOL_DEFINITION ( 'international standard', 'config_control_design', 1994, #2 ) ;
#32 = CALENDAR_DATE ( 2021, 1, 11 ) ;
#33 = TOROIDAL_SURFACE ( 'NONE', #83, 2.675000000000001155, 2.000000000000000888 ) ;
#34 = CC_DESIGN_APPROVAL ( #36, ( #160 ) ) ;
#35 = PERSON_AND_ORGANIZATION ( #50, #102 ) ;
#36 = APPROVAL ( #205, 'UNSPECIFIED' ) ;
#37 = COORDINATED_UNIVERSAL_TIME_OFFSET ( 1, 0, .AHEAD. ) ;
#38 = EDGE_LOOP ( 'NONE', ( #61 ) ) ;
#39 = DIRECTION ( 'NONE',  ( 3.491481338843133355E-15, -1.224646799147353207E-16, 1.000000000000000000 ) ) ;
#40 = ORIENTED_EDGE ( 'NONE', *, *, #214, .T. ) ;
#41 = ORIENTED_EDGE ( 'NONE', *, *, #240, .T. ) ;
#42 = EDGE_LOOP ( 'NONE', ( #133 ) ) ;
#43 = COORDINATED_UNIVERSAL_TIME_OFFSET ( 1, 0, .AHEAD. ) ;
#44 = MANIFOLD_SOLID_BREP ( 'Corps-Déplacer/Copier1[2]', #80 ) ;
#45 = AXIS2_PLACEMENT_3D ( 'NONE', #6, #231, #100 ) ;
#46 = CIRCLE ( 'NONE', #88, 0.6749999999999997113 ) ;
#47 = FACE_OUTER_BOUND ( 'NONE', #91, .T. ) ;
#48 = APPROVAL ( #108, 'UNSPECIFIED' ) ;
#49 = DIRECTION ( 'NONE',  ( 3.491481338843133355E-15, -1.224646799147353207E-16, 1.000000000000000000 ) ) ;
#50 = PERSON ( 'UNSPECIFIED', 'UNSPECIFIED', 'UNSPECIFIED', ('UNSPECIFIED'), ('UNSPECIFIED'), ('UNSPECIFIED') ) ;
#51 = PLANE ( 'NONE',  #73 ) ;
#52 = FACE_OUTER_BOUND ( 'NONE', #137, .T. ) ;
#53 = DIRECTION ( 'NONE',  ( 3.491481338843133355E-15, -1.219242935835426903E-16, 1.000000000000000000 ) ) ;
#54 = CC_DESIGN_DATE_AND_TIME_ASSIGNMENT ( #56, #198, ( #149 ) ) ;
#55 = PERSON_AND_ORGANIZATION_ROLE ( 'creator' ) ;
#56 = DATE_AND_TIME ( #32, #114 ) ;
#57 = AXIS2_PLACEMENT_3D ( 'NONE', #68, #194, #162 ) ;
#58 = ORIENTED_EDGE ( 'NONE', *, *, #109, .T. ) ;
#59 = EDGE_LOOP ( 'NONE', ( #95 ) ) ;
#60 = VERTEX_POINT ( 'NONE', #90 ) ;
#61 = ORIENTED_EDGE ( 'NONE', *, *, #96, .F. ) ;
#62 = PERSON_AND_ORGANIZATION ( #50, #102 ) ;
#63 = PERSON_AND_ORGANIZATION ( #50, #102 ) ;
#64 = LOCAL_TIME ( 10, 45, 44.00000000000000000, #170 ) ;
#65 = ADVANCED_FACE ( 'NONE', ( #52 ), #8, .F. ) ;
#66 = DIRECTION ( 'NONE',  ( -4.256963957985708889E-31, -1.000000000000000000, -1.219242935835426903E-16 ) ) ;
#67 = LOCAL_TIME ( 10, 45, 44.00000000000000000, #197 ) ;
#68 = CARTESIAN_POINT ( 'NONE',  ( -2.211480567100067128E-30, 7.722601948854988302E-32, -6.333932083488719582E-16 ) ) ;
#69 = CARTESIAN_POINT ( 'NONE',  ( 2.144554046978690274E-14, -7.488891156904792893E-16, 6.142246911419169564 ) ) ;
#70 = ADVANCED_FACE ( 'NONE', ( #121, #47 ), #13, .T. ) ;
#71 = DIRECTION ( 'NONE',  ( -4.275831445896958607E-31, -1.000000000000000000, -1.224646799147353207E-16 ) ) ;
#72 = APPROVAL_PERSON_ORGANIZATION ( #148, #48, #199 ) ;
#73 = AXIS2_PLACEMENT_3D ( 'NONE', #227, #39, #150 ) ;
#74 = VERTEX_POINT ( 'NONE', #241 ) ;
#75 = DIRECTION ( 'NONE',  ( 0.0000000000000000000, 0.0000000000000000000, 1.000000000000000000 ) ) ;
#76 = ORIENTED_EDGE ( 'NONE', *, *, #240, .F. ) ;
#77 = EDGE_CURVE ( 'NONE', #196, #196, #146, .T. ) ;
#78 = CARTESIAN_POINT ( 'NONE',  ( 9.776147748760771817E-15, -3.413880220339194539E-16, 2.799999999999999378 ) ) ;
#79 = PERSON_AND_ORGANIZATION_ROLE ( 'classification_officer' ) ;
#80 = CLOSED_SHELL ( 'NONE', ( #157, #70, #234 ) ) ;
#81 = DIRECTION ( 'NONE',  ( 3.491481338843133355E-15, -1.224646799147353207E-16, 1.000000000000000000 ) ) ;
#82 = FACE_OUTER_BOUND ( 'NONE', #4, .T. ) ;
#83 = AXIS2_PLACEMENT_3D ( 'NONE', #118, #188, #98 ) ;
#84 = LOCAL_TIME ( 10, 45, 44.00000000000000000, #43 ) ;
#85 = PLANE ( 'NONE',  #177 ) ;
#86 = CC_DESIGN_PERSON_AND_ORGANIZATION_ASSIGNMENT ( #164, #55, ( #149 ) ) ;
#87 = FACE_BOUND ( 'NONE', #151, .T. ) ;
#88 = AXIS2_PLACEMENT_3D ( 'NONE', #78, #159, #191 ) ;
#89 = PRODUCT_DEFINITION_SHAPE ( 'NONE', 'NONE',  #149 ) ;
#90 = CARTESIAN_POINT ( 'NONE',  ( -2.498825634264102809E-30, -0.6749999999999998224, -7.156921065177632692E-16 ) ) ;
#91 = EDGE_LOOP ( 'NONE', ( #76 ) ) ;
#92 = AXIS2_PLACEMENT_3D ( 'NONE', #238, #104, #144 ) ;
#93 = APPROVAL_PERSON_ORGANIZATION ( #62, #36, #99 ) ;
#94 = CARTESIAN_POINT ( 'NONE',  ( 1.316288464743861212E-13, 1.499999999999993117, 37.69999999999999574 ) ) ;
#95 = ORIENTED_EDGE ( 'NONE', *, *, #77, .F. ) ;
#96 = EDGE_CURVE ( 'NONE', #74, #74, #120, .T. ) ;
#97 = CC_DESIGN_PERSON_AND_ORGANIZATION_ASSIGNMENT ( #152, #219, ( #181 ) ) ;
#98 = DIRECTION ( 'NONE',  ( -4.313766726762734541E-31, -1.000000000000000000, -1.219242935835426903E-16 ) ) ;
#99 = APPROVAL_ROLE ( '' ) ;
#100 = DIRECTION ( 'NONE',  ( 0.0000000000000000000, -1.000000000000000000, 0.0000000000000000000 ) ) ;
#101 = APPROVAL_DATE_TIME ( #136, #206 ) ;
#102 = ORGANIZATION ( 'UNSPECIFIED', 'UNSPECIFIED', '' ) ;
#103 = ADVANCED_BREP_SHAPE_REPRESENTATION ( '57174', ( #195, #44, #186 ), #211 ) ;
#104 = DIRECTION ( 'NONE',  ( -3.491481338843133355E-15, 1.224646799147353207E-16, -1.000000000000000000 ) ) ;
#105 = PLANE ( 'NONE',  #16 ) ;
#106 = AXIS2_PLACEMENT_3D ( 'NONE', #167, #147, #130 ) ;
#107 = DIRECTION ( 'NONE',  ( -3.491481338843133355E-15, 1.224646799147353207E-16, -1.000000000000000000 ) ) ;
#108 = APPROVAL_STATUS ( 'not_yet_approved' ) ;
#109 = EDGE_CURVE ( 'NONE', #60, #60, #236, .T. ) ;
#110 = VERTEX_POINT ( 'NONE', #243 ) ;
#111 = CIRCLE ( 'NONE', #190, 1.199999999999997957 ) ;
#112 = MECHANICAL_CONTEXT ( 'NONE', #2, 'mechanical' ) ;
#113 = EDGE_LOOP ( 'NONE', ( #223 ) ) ;
#114 = LOCAL_TIME ( 10, 45, 44.00000000000000000, #129 ) ;
#115 = DATE_AND_TIME ( #207, #64 ) ;
#116 = EDGE_LOOP ( 'NONE', ( #225 ) ) ;
#117 = CONICAL_SURFACE ( 'NONE', #193, 2.499999999999996447, 0.2617993877991430796 ) ;
#118 = CARTESIAN_POINT ( 'NONE',  ( 9.776147748760771817E-15, -4.336808689942017736E-16, 2.799999999999999378 ) ) ;
#119 = PRODUCT_RELATED_PRODUCT_CATEGORY ( 'detail', '', ( #181 ) ) ;
#120 = CIRCLE ( 'NONE', #125, 1.499999999999995781 ) ;
#121 = FACE_OUTER_BOUND ( 'NONE', #20, .T. ) ;
#122 = CC_DESIGN_PERSON_AND_ORGANIZATION_ASSIGNMENT ( #63, #79, ( #160 ) ) ;
#123 = CYLINDRICAL_SURFACE ( 'NONE', #92, 1.499999999999995781 ) ;
#124 = DIRECTION ( 'NONE',  ( 0.0000000000000000000, -1.000000000000000000, 0.0000000000000000000 ) ) ;
#125 = AXIS2_PLACEMENT_3D ( 'NONE', #69, #237, #124 ) ;
#126 = LOCAL_TIME ( 10, 45, 44.00000000000000000, #37 ) ;
#127 = DIRECTION ( 'NONE',  ( 0.0000000000000000000, 1.000000000000000000, 0.0000000000000000000 ) ) ;
#128 = ADVANCED_FACE ( 'NONE', ( #192, #239 ), #123, .T. ) ;
#129 = COORDINATED_UNIVERSAL_TIME_OFFSET ( 1, 0, .AHEAD. ) ;
#130 = DIRECTION ( 'NONE',  ( 0.0000000000000000000, -1.000000000000000000, 0.0000000000000000000 ) ) ;
#131 = CC_DESIGN_APPROVAL ( #48, ( #149 ) ) ;
#132 = APPROVAL_STATUS ( 'not_yet_approved' ) ;
#133 = ORIENTED_EDGE ( 'NONE', *, *, #214, .F. ) ;
#134 =( NAMED_UNIT ( * ) PLANE_ANGLE_UNIT ( ) SI_UNIT ( $, .RADIAN. ) );
#135 = EDGE_LOOP ( 'NONE', ( #184 ) ) ;
#136 = DATE_AND_TIME ( #5, #126 ) ;
#137 = EDGE_LOOP ( 'NONE', ( #138 ) ) ;
#138 = ORIENTED_EDGE ( 'NONE', *, *, #21, .F. ) ;
#139 = CARTESIAN_POINT ( 'NONE',  ( 9.776147748760773395E-15, 1.124819836996387869E-32, 2.799999999999999822 ) ) ;
#140 = APPROVAL_DATE_TIME ( #185, #36 ) ;
#141 = AXIS2_PLACEMENT_3D ( 'NONE', #215, #9, #127 ) ;
#142 = CARTESIAN_POINT ( 'NONE',  ( 1.326762908760390423E-13, 8.998558695971062171E-33, 38.00000000000000000 ) ) ;
#143 = DIRECTION ( 'NONE',  ( 0.0000000000000000000, -1.000000000000000000, 0.0000000000000000000 ) ) ;
#144 = DIRECTION ( 'NONE',  ( 4.275831445896958607E-31, 1.000000000000000000, 1.224646799147353207E-16 ) ) ;
#145 = FACE_OUTER_BOUND ( 'NONE', #113, .T. ) ;
#146 = CIRCLE ( 'NONE', #174, 1.499999999999997558 ) ;
#147 = DIRECTION ( 'NONE',  ( 3.491481338843133355E-15, -1.219242935835426903E-16, 1.000000000000000000 ) ) ;
#148 = PERSON_AND_ORGANIZATION ( #50, #102 ) ;
#149 = PRODUCT_DEFINITION ( 'UNKNOWN', '', #22, #27 ) ;
#150 = DIRECTION ( 'NONE',  ( -4.275831445896958607E-31, -1.000000000000000000, -1.224646799147353207E-16 ) ) ;
#151 = EDGE_LOOP ( 'NONE', ( #230 ) ) ;
#152 = PERSON_AND_ORGANIZATION ( #50, #102 ) ;
#153 = CONICAL_SURFACE ( 'NONE', #141, 1.199999999999997957, 0.7853981633974450594 ) ;
#154 = ORIENTED_EDGE ( 'NONE', *, *, #96, .T. ) ;
#155 = DATE_TIME_ROLE ( 'classification_date' ) ;
#156 = DIRECTION ( 'NONE',  ( 3.491481338843133355E-15, -1.219242935835426903E-16, 1.000000000000000000 ) ) ;
#157 = ADVANCED_FACE ( 'NONE', ( #29 ), #105, .T. ) ;
#158 = FACE_OUTER_BOUND ( 'NONE', #59, .T. ) ;
#159 = DIRECTION ( 'NONE',  ( 3.491481338843133355E-15, -1.219242935835426903E-16, 1.000000000000000000 ) ) ;
#160 = SECURITY_CLASSIFICATION ( '', '', #232 ) ;
#161 = DIRECTION ( 'NONE',  ( 0.0000000000000000000, 1.000000000000000000, 0.0000000000000000000 ) ) ;
#162 = DIRECTION ( 'NONE',  ( -4.256963957985710640E-31, -1.000000000000000000, -1.219242935835427149E-16 ) ) ;
#163 = CC_DESIGN_PERSON_AND_ORGANIZATION_ASSIGNMENT ( #25, #173, ( #22 ) ) ;
#164 = PERSON_AND_ORGANIZATION ( #50, #102 ) ;
#165 = VERTEX_POINT ( 'NONE', #180 ) ;
#166 = ADVANCED_FACE ( 'NONE', ( #158, #87 ), #153, .T. ) ;
#167 = CARTESIAN_POINT ( 'NONE',  ( 9.776147748760771817E-15, -3.413880220339194539E-16, 2.799999999999999378 ) ) ;
#168 = EDGE_LOOP ( 'NONE', ( #40 ) ) ;
#169 = CLOSED_SHELL ( 'NONE', ( #128, #166, #226, #203, #189, #65 ) ) ;
#170 = COORDINATED_UNIVERSAL_TIME_OFFSET ( 1, 0, .AHEAD. ) ;
#171 = CARTESIAN_POINT ( 'NONE',  ( 3.447592622002842423E-14, -1.203916774021216529E-15, 9.874297718988145789 ) ) ;
#172 = CC_DESIGN_DATE_AND_TIME_ASSIGNMENT ( #115, #155, ( #160 ) ) ;
#173 = PERSON_AND_ORGANIZATION_ROLE ( 'creator' ) ;
#174 = AXIS2_PLACEMENT_3D ( 'NONE', #30, #107, #161 ) ;
#175 = DIRECTION ( 'NONE',  ( -3.491481338843133355E-15, 1.224646799147353207E-16, -1.000000000000000000 ) ) ;
#176 = DIRECTION ( 'NONE',  ( 4.275831445896958607E-31, 1.000000000000000000, 1.224646799147353207E-16 ) ) ;
#177 = AXIS2_PLACEMENT_3D ( 'NONE', #142, #28, #176 ) ;
#178 = CARTESIAN_POINT ( 'NONE',  ( 9.776147748760773395E-15, 1.124819836996387869E-32, 2.799999999999999822 ) ) ;
#179 = CALENDAR_DATE ( 2021, 1, 11 ) ;
#180 = CARTESIAN_POINT ( 'NONE',  ( 9.776147748760771817E-15, -0.6750000000000000444, 2.799999999999999378 ) ) ;
#181 = PRODUCT ( '57174', '57174', '', ( #112 ) ) ;
#182 = APPLICATION_PROTOCOL_DEFINITION ( 'international standard', 'config_control_design', 1994, #15 ) ;
#183 =( LENGTH_UNIT ( ) NAMED_UNIT ( * ) SI_UNIT ( .MILLI., .METRE. ) );
#184 = ORIENTED_EDGE ( 'NONE', *, *, #10, .F. ) ;
#185 = DATE_AND_TIME ( #187, #84 ) ;
#186 = AXIS2_PLACEMENT_3D ( 'NONE', #19, #75, #220 ) ;
#187 = CALENDAR_DATE ( 2021, 1, 11 ) ;
#188 = DIRECTION ( 'NONE',  ( 3.491481338843133355E-15, -1.219242935835426903E-16, 1.000000000000000000 ) ) ;
#189 = ADVANCED_FACE ( 'NONE', ( #145, #218 ), #33, .F. ) ;
#190 = AXIS2_PLACEMENT_3D ( 'NONE', #208, #175, #23 ) ;
#191 = DIRECTION ( 'NONE',  ( 0.0000000000000000000, -1.000000000000000000, 0.0000000000000000000 ) ) ;
#192 = FACE_OUTER_BOUND ( 'NONE', #116, .T. ) ;
#193 = AXIS2_PLACEMENT_3D ( 'NONE', #171, #156, #143 ) ;
#194 = DIRECTION ( 'NONE',  ( 3.491481338843133355E-15, -1.219242935835426903E-16, 1.000000000000000000 ) ) ;
#195 = MANIFOLD_SOLID_BREP ( 'Corps-Déplacer/Copier1[1]', #169 ) ;
#196 = VERTEX_POINT ( 'NONE', #94 ) ;
#197 = COORDINATED_UNIVERSAL_TIME_OFFSET ( 1, 0, .AHEAD. ) ;
#198 = DATE_TIME_ROLE ( 'creation_date' ) ;
#199 = APPROVAL_ROLE ( '' ) ;
#200 = EDGE_LOOP ( 'NONE', ( #154 ) ) ;
#201 = VERTEX_POINT ( 'NONE', #17 ) ;
#202 = ORIENTED_EDGE ( 'NONE', *, *, #109, .F. ) ;
#203 = ADVANCED_FACE ( 'NONE', ( #24, #12 ), #117, .T. ) ;
#204 = EDGE_LOOP ( 'NONE', ( #41 ) ) ;
#205 = APPROVAL_STATUS ( 'not_yet_approved' ) ;
#206 = APPROVAL ( #132, 'UNSPECIFIED' ) ;
#207 = CALENDAR_DATE ( 2021, 1, 11 ) ;
#208 = CARTESIAN_POINT ( 'NONE',  ( 1.326762908760390423E-13, -4.653657836759941941E-15, 38.00000000000000000 ) ) ;
#209 = CIRCLE ( 'NONE', #106, 0.6749999999999997113 ) ;
#210 = CC_DESIGN_APPROVAL ( #206, ( #22 ) ) ;
#211 =( GEOMETRIC_REPRESENTATION_CONTEXT ( 3 ) GLOBAL_UNCERTAINTY_ASSIGNED_CONTEXT ( ( #11 ) ) GLOBAL_UNIT_ASSIGNED_CONTEXT ( ( #183, #134, #242 ) ) REPRESENTATION_CONTEXT ( 'NONE', 'WORKASPACE' ) );
#212 = CARTESIAN_POINT ( 'NONE',  ( 0.0000000000000000000, 0.0000000000000000000, 0.0000000000000000000 ) ) ;
#213 = DIRECTION ( 'NONE',  ( -4.275831445896958607E-31, -1.000000000000000000, -1.224646799147353207E-16 ) ) ;
#214 = EDGE_CURVE ( 'NONE', #224, #224, #222, .T. ) ;
#215 = CARTESIAN_POINT ( 'NONE',  ( 1.326762908760390423E-13, -4.653657836759941941E-15, 38.00000000000000000 ) ) ;
#216 = AXIS2_PLACEMENT_3D ( 'NONE', #139, #49, #213 ) ;
#217 = CC_DESIGN_SECURITY_CLASSIFICATION ( #160, ( #22 ) ) ;
#218 = FACE_OUTER_BOUND ( 'NONE', #42, .T. ) ;
#219 = PERSON_AND_ORGANIZATION_ROLE ( 'design_owner' ) ;
#220 = DIRECTION ( 'NONE',  ( 1.000000000000000000, 0.0000000000000000000, 0.0000000000000000000 ) ) ;
#221 = DATE_AND_TIME ( #179, #67 ) ;
#222 = CIRCLE ( 'NONE', #45, 0.7431483474218603114 ) ;
#223 = ORIENTED_EDGE ( 'NONE', *, *, #21, .T. ) ;
#224 = VERTEX_POINT ( 'NONE', #1 ) ;
#225 = ORIENTED_EDGE ( 'NONE', *, *, #77, .T. ) ;
#226 = ADVANCED_FACE ( 'NONE', ( #235 ), #85, .F. ) ;
#227 = CARTESIAN_POINT ( 'NONE',  ( -6.413803915257455362E-31, 2.249659577954771652E-32, -1.836986451539392583E-16 ) ) ;
#228 = SHAPE_DEFINITION_REPRESENTATION ( #89, #103 ) ;
#229 = AXIS2_PLACEMENT_3D ( 'NONE', #212, #53, #66 ) ;
#230 = ORIENTED_EDGE ( 'NONE', *, *, #10, .T. ) ;
#231 = DIRECTION ( 'NONE',  ( 3.491481338843133355E-15, -1.219242935835426903E-16, 1.000000000000000000 ) ) ;
#232 = SECURITY_CLASSIFICATION_LEVEL ( 'unclassified' ) ;
#233 = APPROVAL_PERSON_ORGANIZATION ( #35, #206, #18 ) ;
#234 = ADVANCED_FACE ( 'NONE', ( #82 ), #51, .F. ) ;
#235 = FACE_OUTER_BOUND ( 'NONE', #135, .T. ) ;
#236 = CIRCLE ( 'NONE', #57, 0.6749999999999998224 ) ;
#237 = DIRECTION ( 'NONE',  ( -3.491481338843133355E-15, 1.219242935835426903E-16, -1.000000000000000000 ) ) ;
#238 = CARTESIAN_POINT ( 'NONE',  ( 0.0000000000000000000, 0.0000000000000000000, 0.0000000000000000000 ) ) ;
#239 = FACE_OUTER_BOUND ( 'NONE', #38, .T. ) ;
#240 = EDGE_CURVE ( 'NONE', #165, #165, #209, .T. ) ;
#241 = CARTESIAN_POINT ( 'NONE',  ( 2.144554046978690274E-14, -1.499999999999996447, 6.142246911419169564 ) ) ;
#242 =( NAMED_UNIT ( * ) SI_UNIT ( $, .STERADIAN. ) SOLID_ANGLE_UNIT ( ) );
#243 = CARTESIAN_POINT ( 'NONE',  ( 1.326762908760390423E-13, 1.199999999999993294, 38.00000000000000000 ) ) ;
ENDSEC;
END-ISO-10303-21;
