ISO-10303-21;
HEADER;
FILE_DESCRIPTION (( 'STEP AP203' ),
    '1' );
FILE_NAME ('57173.step',
    '2021-11-01T09:45:43',
    ( '' ),
    ( '' ),
    'SwSTEP 2.0',
    'SolidWorks 2019',
    '' );
FILE_SCHEMA (( 'CONFIG_CONTROL_DESIGN' ));
ENDSEC;

DATA;
#1 = DIRECTION ( 'NONE',  ( 3.491481338843133355E-15, -1.224646799147353207E-16, 1.000000000000000000 ) ) ;
#2 = CC_DESIGN_SECURITY_CLASSIFICATION ( #110, ( #171 ) ) ;
#3 = DATE_TIME_ROLE ( 'creation_date' ) ;
#4 = EDGE_CURVE ( 'NONE', #15, #15, #120, .T. ) ;
#5 = LOCAL_TIME ( 10, 45, 43.00000000000000000, #146 ) ;
#6 = ORIENTED_EDGE ( 'NONE', *, *, #4, .T. ) ;
#7 = CIRCLE ( 'NONE', #168, 1.499999999999997558 ) ;
#8 = UNCERTAINTY_MEASURE_WITH_UNIT (LENGTH_MEASURE( 1.000000000000000082E-05 ), #210, 'distance_accuracy_value', 'NONE');
#9 = EDGE_LOOP ( 'NONE', ( #99 ) ) ;
#10 = ADVANCED_FACE ( 'NONE', ( #176, #90 ), #147, .T. ) ;
#11 = APPLICATION_PROTOCOL_DEFINITION ( 'international standard', 'config_control_design', 1994, #115 ) ;
#12 = DATE_AND_TIME ( #174, #134 ) ;
#13 = AXIS2_PLACEMENT_3D ( 'NONE', #199, #214, #50 ) ;
#14 = APPROVAL ( #186, 'UNSPECIFIED' ) ;
#15 = VERTEX_POINT ( 'NONE', #68 ) ;
#16 = DIRECTION ( 'NONE',  ( 0.0000000000000000000, -1.000000000000000000, 0.0000000000000000000 ) ) ;
#17 = PLANE ( 'NONE',  #71 ) ;
#18 = APPROVAL_DATE_TIME ( #12, #225 ) ;
#19 = FACE_OUTER_BOUND ( 'NONE', #86, .T. ) ;
#20 = APPROVAL_DATE_TIME ( #181, #98 ) ;
#21 = DIRECTION ( 'NONE',  ( 0.0000000000000000000, 1.000000000000000000, 0.0000000000000000000 ) ) ;
#22 = CALENDAR_DATE ( 2021, 1, 11 ) ;
#23 = DIRECTION ( 'NONE',  ( -4.256963957985708013E-31, -1.000000000000000000, -1.219242935835427149E-16 ) ) ;
#24 = PERSON_AND_ORGANIZATION ( #226, #160 ) ;
#25 = MANIFOLD_SOLID_BREP ( 'Corps-Déplacer/Copier1[2]', #61 ) ;
#26 = AXIS2_PLACEMENT_3D ( 'NONE', #40, #165, #204 ) ;
#27 = ORIENTED_EDGE ( 'NONE', *, *, #43, .T. ) ;
#28 = AXIS2_PLACEMENT_3D ( 'NONE', #158, #172, #232 ) ;
#29 = DIRECTION ( 'NONE',  ( 3.491481338843133355E-15, -1.219242935835426903E-16, 1.000000000000000000 ) ) ;
#30 = CARTESIAN_POINT ( 'NONE',  ( 1.326762908760390423E-13, 1.199999999999993294, 38.00000000000000000 ) ) ;
#31 = APPROVAL_ROLE ( '' ) ;
#32 = ADVANCED_FACE ( 'NONE', ( #162 ), #17, .F. ) ;
#33 = EDGE_LOOP ( 'NONE', ( #139 ) ) ;
#34 = PLANE ( 'NONE',  #227 ) ;
#35 = DIRECTION ( 'NONE',  ( -4.275831445896958607E-31, -1.000000000000000000, -1.224646799147353207E-16 ) ) ;
#36 = APPROVAL_ROLE ( '' ) ;
#37 = FACE_OUTER_BOUND ( 'NONE', #193, .T. ) ;
#38 = CLOSED_SHELL ( 'NONE', ( #216, #164, #108, #191, #154, #133 ) ) ;
#39 = DATE_AND_TIME ( #112, #151 ) ;
#40 = CARTESIAN_POINT ( 'NONE',  ( 9.077851480992145146E-15, -3.170031633172109355E-16, 2.599999999999999645 ) ) ;
#41 = CONICAL_SURFACE ( 'NONE', #13, 1.199999999999997957, 0.7853981633974450594 ) ;
#42 = CC_DESIGN_APPROVAL ( #98, ( #171 ) ) ;
#43 = EDGE_CURVE ( 'NONE', #215, #215, #222, .T. ) ;
#44 = ORIENTED_EDGE ( 'NONE', *, *, #77, .F. ) ;
#45 = AXIS2_PLACEMENT_3D ( 'NONE', #179, #92, #145 ) ;
#46 = FACE_OUTER_BOUND ( 'NONE', #88, .T. ) ;
#47 = ADVANCED_FACE ( 'NONE', ( #37 ), #219, .T. ) ;
#48 = CARTESIAN_POINT ( 'NONE',  ( 0.0000000000000000000, 0.0000000000000000000, 0.0000000000000000000 ) ) ;
#49 = EDGE_LOOP ( 'NONE', ( #229 ) ) ;
#50 = DIRECTION ( 'NONE',  ( 0.0000000000000000000, 1.000000000000000000, 0.0000000000000000000 ) ) ;
#51 = AXIS2_PLACEMENT_3D ( 'NONE', #75, #143, #240 ) ;
#52 = DIRECTION ( 'NONE',  ( -3.491481338843133355E-15, 1.224646799147353207E-16, -1.000000000000000000 ) ) ;
#53 = PRODUCT ( '57173', '57173', '', ( #194 ) ) ;
#54 = DIRECTION ( 'NONE',  ( 3.491481338843133355E-15, -1.219242935835426903E-16, 1.000000000000000000 ) ) ;
#55 = CARTESIAN_POINT ( 'NONE',  ( 9.077851480992146724E-15, 1.124819836996388006E-32, 2.600000000000000089 ) ) ;
#56 = DATE_AND_TIME ( #60, #5 ) ;
#57 = DIRECTION ( 'NONE',  ( 3.491481338843133355E-15, -1.224646799147353207E-16, 1.000000000000000000 ) ) ;
#58 = AXIS2_PLACEMENT_3D ( 'NONE', #48, #234, #173 ) ;
#59 = EDGE_CURVE ( 'NONE', #142, #142, #180, .T. ) ;
#60 = CALENDAR_DATE ( 2021, 1, 11 ) ;
#61 = CLOSED_SHELL ( 'NONE', ( #47, #10, #32 ) ) ;
#62 = APPROVAL_PERSON_ORGANIZATION ( #82, #14, #79 ) ;
#63 = CIRCLE ( 'NONE', #198, 0.6499999999999999112 ) ;
#64 = CC_DESIGN_PERSON_AND_ORGANIZATION_ASSIGNMENT ( #105, #189, ( #53 ) ) ;
#65 = ORIENTED_EDGE ( 'NONE', *, *, #59, .T. ) ;
#66 = FACE_OUTER_BOUND ( 'NONE', #33, .T. ) ;
#67 = CARTESIAN_POINT ( 'NONE',  ( -2.200838157205102740E-30, 7.685438115440373810E-32, -6.303451010092834057E-16 ) ) ;
#68 = CARTESIAN_POINT ( 'NONE',  ( -2.477540814474174032E-30, -0.6500000000000000222, -7.095958918385861643E-16 ) ) ;
#69 = ORIENTED_EDGE ( 'NONE', *, *, #43, .F. ) ;
#70 = EDGE_CURVE ( 'NONE', #125, #125, #205, .T. ) ;
#71 = AXIS2_PLACEMENT_3D ( 'NONE', #132, #1, #80 ) ;
#72 = PERSON_AND_ORGANIZATION ( #226, #160 ) ;
#73 = ORIENTED_EDGE ( 'NONE', *, *, #4, .F. ) ;
#74 =( NAMED_UNIT ( * ) PLANE_ANGLE_UNIT ( ) SI_UNIT ( $, .RADIAN. ) );
#75 = CARTESIAN_POINT ( 'NONE',  ( 0.0000000000000000000, 0.0000000000000000000, 0.0000000000000000000 ) ) ;
#76 = APPROVAL_DATE_TIME ( #56, #14 ) ;
#77 = EDGE_CURVE ( 'NONE', #157, #157, #7, .T. ) ;
#78 = DIRECTION ( 'NONE',  ( 0.0000000000000000000, -1.000000000000000000, 0.0000000000000000000 ) ) ;
#79 = APPROVAL_ROLE ( '' ) ;
#80 = DIRECTION ( 'NONE',  ( -4.275831445896958607E-31, -1.000000000000000000, -1.224646799147353207E-16 ) ) ;
#81 = AXIS2_PLACEMENT_3D ( 'NONE', #55, #218, #206 ) ;
#82 = PERSON_AND_ORGANIZATION ( #226, #160 ) ;
#83 = EDGE_LOOP ( 'NONE', ( #122 ) ) ;
#84 = ORIENTED_EDGE ( 'NONE', *, *, #59, .F. ) ;
#85 = CARTESIAN_POINT ( 'NONE',  ( 9.077851480992145146E-15, -0.6500000000000001332, 2.599999999999999645 ) ) ;
#86 = EDGE_LOOP ( 'NONE', ( #84 ) ) ;
#87 = APPLICATION_PROTOCOL_DEFINITION ( 'international standard', 'config_control_design', 1994, #138 ) ;
#88 = EDGE_LOOP ( 'NONE', ( #27 ) ) ;
#89 = EDGE_LOOP ( 'NONE', ( #65 ) ) ;
#90 = FACE_OUTER_BOUND ( 'NONE', #83, .T. ) ;
#91 = DIRECTION ( 'NONE',  ( 3.491481338843133355E-15, -1.219242935835426903E-16, 1.000000000000000000 ) ) ;
#92 = DIRECTION ( 'NONE',  ( -3.491481338843133355E-15, 1.219242935835426903E-16, -1.000000000000000000 ) ) ;
#93 = PERSON_AND_ORGANIZATION ( #226, #160 ) ;
#94 = CARTESIAN_POINT ( 'NONE',  ( 1.326762908760390423E-13, 8.998558695971062171E-33, 38.00000000000000000 ) ) ;
#95 = PERSON_AND_ORGANIZATION_ROLE ( 'design_supplier' ) ;
#96 = TOROIDAL_SURFACE ( 'NONE', #128, 2.650000000000000799, 2.000000000000000444 ) ;
#97 = CC_DESIGN_APPROVAL ( #14, ( #110 ) ) ;
#98 = APPROVAL ( #185, 'UNSPECIFIED' ) ;
#99 = ORIENTED_EDGE ( 'NONE', *, *, #70, .F. ) ;
#100 =( NAMED_UNIT ( * ) SI_UNIT ( $, .STERADIAN. ) SOLID_ANGLE_UNIT ( ) );
#101 = CC_DESIGN_PERSON_AND_ORGANIZATION_ASSIGNMENT ( #93, #95, ( #171 ) ) ;
#102 = COORDINATED_UNIVERSAL_TIME_OFFSET ( 1, 0, .AHEAD. ) ;
#103 = LOCAL_TIME ( 10, 45, 43.00000000000000000, #207 ) ;
#104 = EDGE_CURVE ( 'NONE', #228, #228, #144, .T. ) ;
#105 = PERSON_AND_ORGANIZATION ( #226, #160 ) ;
#106 = DIRECTION ( 'NONE',  ( -3.491481338843133355E-15, 1.224646799147353207E-16, -1.000000000000000000 ) ) ;
#107 = DIRECTION ( 'NONE',  ( 3.491481338843133355E-15, -1.219242935835426903E-16, 1.000000000000000000 ) ) ;
#108 = ADVANCED_FACE ( 'NONE', ( #200 ), #34, .F. ) ;
#109 = PERSON_AND_ORGANIZATION ( #226, #160 ) ;
#110 = SECURITY_CLASSIFICATION ( '', '', #114 ) ;
#111 = DIRECTION ( 'NONE',  ( 0.0000000000000000000, 1.000000000000000000, 0.0000000000000000000 ) ) ;
#112 = CALENDAR_DATE ( 2021, 1, 11 ) ;
#113 = DIRECTION ( 'NONE',  ( -4.314072117992718681E-31, -1.000000000000000000, -1.219242935835426903E-16 ) ) ;
#114 = SECURITY_CLASSIFICATION_LEVEL ( 'unclassified' ) ;
#115 = APPLICATION_CONTEXT ( 'configuration controlled 3d designs of mechanical parts and assemblies' ) ;
#116 = AXIS2_PLACEMENT_3D ( 'NONE', #182, #54, #16 ) ;
#117 = APPROVAL_PERSON_ORGANIZATION ( #72, #225, #31 ) ;
#118 = EDGE_LOOP ( 'NONE', ( #137 ) ) ;
#119 = FACE_BOUND ( 'NONE', #89, .T. ) ;
#120 = CIRCLE ( 'NONE', #153, 0.6500000000000000222 ) ;
#121 = CYLINDRICAL_SURFACE ( 'NONE', #58, 1.499999999999995559 ) ;
#122 = ORIENTED_EDGE ( 'NONE', *, *, #126, .F. ) ;
#123 = CARTESIAN_POINT ( 'NONE',  ( 1.088517521321740310E-14, -0.7181483474218608443, 3.117638090205028689 ) ) ;
#124 = EDGE_LOOP ( 'NONE', ( #44 ) ) ;
#125 = VERTEX_POINT ( 'NONE', #85 ) ;
#126 = EDGE_CURVE ( 'NONE', #196, #196, #63, .T. ) ;
#127 = EDGE_LOOP ( 'NONE', ( #69 ) ) ;
#128 = AXIS2_PLACEMENT_3D ( 'NONE', #221, #135, #113 ) ;
#129 = CC_DESIGN_APPROVAL ( #225, ( #236 ) ) ;
#130 = CARTESIAN_POINT ( 'NONE',  ( 1.326762908760390423E-13, -4.653657836759941941E-15, 38.00000000000000000 ) ) ;
#131 = PLANE ( 'NONE',  #159 ) ;
#132 = CARTESIAN_POINT ( 'NONE',  ( -6.413803915257455362E-31, 2.249659577954771652E-32, -1.836986451539392583E-16 ) ) ;
#133 = ADVANCED_FACE ( 'NONE', ( #167 ), #131, .F. ) ;
#134 = LOCAL_TIME ( 10, 45, 43.00000000000000000, #102 ) ;
#135 = DIRECTION ( 'NONE',  ( 3.491481338843133355E-15, -1.219242935835426903E-16, 1.000000000000000000 ) ) ;
#136 = CALENDAR_DATE ( 2021, 1, 11 ) ;
#137 = ORIENTED_EDGE ( 'NONE', *, *, #104, .F. ) ;
#138 = APPLICATION_CONTEXT ( 'configuration controlled 3d designs of mechanical parts and assemblies' ) ;
#139 = ORIENTED_EDGE ( 'NONE', *, *, #77, .T. ) ;
#140 = APPROVAL_STATUS ( 'not_yet_approved' ) ;
#141 = CC_DESIGN_PERSON_AND_ORGANIZATION_ASSIGNMENT ( #109, #149, ( #236 ) ) ;
#142 = VERTEX_POINT ( 'NONE', #123 ) ;
#143 = DIRECTION ( 'NONE',  ( 3.491481338843133355E-15, -1.219242935835426903E-16, 1.000000000000000000 ) ) ;
#144 = CIRCLE ( 'NONE', #209, 1.199999999999997957 ) ;
#145 = DIRECTION ( 'NONE',  ( 0.0000000000000000000, -1.000000000000000000, 0.0000000000000000000 ) ) ;
#146 = COORDINATED_UNIVERSAL_TIME_OFFSET ( 1, 0, .AHEAD. ) ;
#147 = CYLINDRICAL_SURFACE ( 'NONE', #51, 0.6500000000000000222 ) ;
#148 = CC_DESIGN_DATE_AND_TIME_ASSIGNMENT ( #183, #3, ( #236 ) ) ;
#149 = PERSON_AND_ORGANIZATION_ROLE ( 'creator' ) ;
#150 = FACE_OUTER_BOUND ( 'NONE', #124, .T. ) ;
#151 = LOCAL_TIME ( 10, 45, 43.00000000000000000, #166 ) ;
#152 = PERSON_AND_ORGANIZATION ( #226, #160 ) ;
#153 = AXIS2_PLACEMENT_3D ( 'NONE', #67, #107, #23 ) ;
#154 = ADVANCED_FACE ( 'NONE', ( #243, #19 ), #96, .F. ) ;
#155 = DIRECTION ( 'NONE',  ( 0.0000000000000000000, -1.000000000000000000, 0.0000000000000000000 ) ) ;
#156 = DESIGN_CONTEXT ( 'detailed design', #115, 'design' ) ;
#157 = VERTEX_POINT ( 'NONE', #237 ) ;
#158 = CARTESIAN_POINT ( 'NONE',  ( 0.0000000000000000000, 0.0000000000000000000, 0.0000000000000000000 ) ) ;
#159 = AXIS2_PLACEMENT_3D ( 'NONE', #202, #57, #35 ) ;
#160 = ORGANIZATION ( 'UNSPECIFIED', 'UNSPECIFIED', '' ) ;
#161 = CARTESIAN_POINT ( 'NONE',  ( 9.077851480992145146E-15, -0.6500000000000001332, 2.599999999999999645 ) ) ;
#162 = FACE_OUTER_BOUND ( 'NONE', #211, .T. ) ;
#163 = CARTESIAN_POINT ( 'NONE',  ( 9.077851480992145146E-15, -3.170031633172109355E-16, 2.599999999999999645 ) ) ;
#164 = ADVANCED_FACE ( 'NONE', ( #150, #184 ), #41, .T. ) ;
#165 = DIRECTION ( 'NONE',  ( 3.491481338843133355E-15, -1.219242935835426903E-16, 1.000000000000000000 ) ) ;
#166 = COORDINATED_UNIVERSAL_TIME_OFFSET ( 1, 0, .AHEAD. ) ;
#167 = FACE_OUTER_BOUND ( 'NONE', #9, .T. ) ;
#168 = AXIS2_PLACEMENT_3D ( 'NONE', #217, #52, #111 ) ;
#169 = ADVANCED_BREP_SHAPE_REPRESENTATION ( '57173', ( #178, #25, #28 ), #223 ) ;
#170 = PRODUCT_RELATED_PRODUCT_CATEGORY ( 'detail', '', ( #53 ) ) ;
#171 = PRODUCT_DEFINITION_FORMATION_WITH_SPECIFIED_SOURCE ( 'ANY', '', #53, .NOT_KNOWN. ) ;
#172 = DIRECTION ( 'NONE',  ( 0.0000000000000000000, 0.0000000000000000000, 1.000000000000000000 ) ) ;
#173 = DIRECTION ( 'NONE',  ( 4.275831445896958607E-31, 1.000000000000000000, 1.224646799147353207E-16 ) ) ;
#174 = CALENDAR_DATE ( 2021, 1, 11 ) ;
#175 = LOCAL_TIME ( 10, 45, 43.00000000000000000, #242 ) ;
#176 = FACE_OUTER_BOUND ( 'NONE', #213, .T. ) ;
#177 = DIRECTION ( 'NONE',  ( 4.275831445896958607E-31, 1.000000000000000000, 1.224646799147353207E-16 ) ) ;
#178 = MANIFOLD_SOLID_BREP ( 'Corps-Déplacer/Copier1[1]', #38 ) ;
#179 = CARTESIAN_POINT ( 'NONE',  ( 2.107300384577431111E-14, -7.358799484320391082E-16, 6.035548181608393570 ) ) ;
#180 = CIRCLE ( 'NONE', #116, 0.7181483474218604002 ) ;
#181 = DATE_AND_TIME ( #22, #175 ) ;
#182 = CARTESIAN_POINT ( 'NONE',  ( 1.088517521321740310E-14, -3.801158217973932592E-16, 3.117638090205028689 ) ) ;
#183 = DATE_AND_TIME ( #136, #103 ) ;
#184 = FACE_BOUND ( 'NONE', #195, .T. ) ;
#185 = APPROVAL_STATUS ( 'not_yet_approved' ) ;
#186 = APPROVAL_STATUS ( 'not_yet_approved' ) ;
#187 = APPROVAL_PERSON_ORGANIZATION ( #152, #98, #36 ) ;
#188 = CC_DESIGN_PERSON_AND_ORGANIZATION_ASSIGNMENT ( #203, #239, ( #171 ) ) ;
#189 = PERSON_AND_ORGANIZATION_ROLE ( 'design_owner' ) ;
#190 = AXIS2_PLACEMENT_3D ( 'NONE', #212, #29, #155 ) ;
#191 = ADVANCED_FACE ( 'NONE', ( #119, #46 ), #241, .T. ) ;
#192 = CARTESIAN_POINT ( 'NONE',  ( 2.107300384577431111E-14, -1.499999999999996225, 6.035548181608393570 ) ) ;
#193 = EDGE_LOOP ( 'NONE', ( #233 ) ) ;
#194 = MECHANICAL_CONTEXT ( 'NONE', #138, 'mechanical' ) ;
#195 = EDGE_LOOP ( 'NONE', ( #197 ) ) ;
#196 = VERTEX_POINT ( 'NONE', #161 ) ;
#197 = ORIENTED_EDGE ( 'NONE', *, *, #104, .T. ) ;
#198 = AXIS2_PLACEMENT_3D ( 'NONE', #163, #91, #78 ) ;
#199 = CARTESIAN_POINT ( 'NONE',  ( 1.326762908760390423E-13, -4.653657836759941941E-15, 38.00000000000000000 ) ) ;
#200 = FACE_OUTER_BOUND ( 'NONE', #118, .T. ) ;
#201 = SHAPE_DEFINITION_REPRESENTATION ( #235, #169 ) ;
#202 = CARTESIAN_POINT ( 'NONE',  ( 9.077851480992146724E-15, 1.124819836996388006E-32, 2.600000000000000089 ) ) ;
#203 = PERSON_AND_ORGANIZATION ( #226, #160 ) ;
#204 = DIRECTION ( 'NONE',  ( 0.0000000000000000000, -1.000000000000000000, 0.0000000000000000000 ) ) ;
#205 = CIRCLE ( 'NONE', #26, 0.6499999999999999112 ) ;
#206 = DIRECTION ( 'NONE',  ( -4.275831445896958607E-31, -1.000000000000000000, -1.224646799147353207E-16 ) ) ;
#207 = COORDINATED_UNIVERSAL_TIME_OFFSET ( 1, 0, .AHEAD. ) ;
#208 = CC_DESIGN_PERSON_AND_ORGANIZATION_ASSIGNMENT ( #24, #220, ( #110 ) ) ;
#209 = AXIS2_PLACEMENT_3D ( 'NONE', #130, #238, #21 ) ;
#210 =( LENGTH_UNIT ( ) NAMED_UNIT ( * ) SI_UNIT ( .MILLI., .METRE. ) );
#211 = EDGE_LOOP ( 'NONE', ( #73 ) ) ;
#212 = CARTESIAN_POINT ( 'NONE',  ( 3.410338959601584522E-14, -1.190907606762776643E-15, 9.767598989177370683 ) ) ;
#213 = EDGE_LOOP ( 'NONE', ( #6 ) ) ;
#214 = DIRECTION ( 'NONE',  ( -3.491481338843133355E-15, 1.224646799147353207E-16, -1.000000000000000000 ) ) ;
#215 = VERTEX_POINT ( 'NONE', #192 ) ;
#216 = ADVANCED_FACE ( 'NONE', ( #66, #230 ), #121, .T. ) ;
#217 = CARTESIAN_POINT ( 'NONE',  ( 1.316288464743861212E-13, -4.616918432785521081E-15, 37.69999999999999574 ) ) ;
#218 = DIRECTION ( 'NONE',  ( 3.491481338843133355E-15, -1.224646799147353207E-16, 1.000000000000000000 ) ) ;
#219 = PLANE ( 'NONE',  #81 ) ;
#220 = PERSON_AND_ORGANIZATION_ROLE ( 'classification_officer' ) ;
#221 = CARTESIAN_POINT ( 'NONE',  ( 9.077851480992145146E-15, -4.336808689942017736E-16, 2.599999999999999645 ) ) ;
#222 = CIRCLE ( 'NONE', #45, 1.499999999999995559 ) ;
#223 =( GEOMETRIC_REPRESENTATION_CONTEXT ( 3 ) GLOBAL_UNCERTAINTY_ASSIGNED_CONTEXT ( ( #8 ) ) GLOBAL_UNIT_ASSIGNED_CONTEXT ( ( #210, #74, #100 ) ) REPRESENTATION_CONTEXT ( 'NONE', 'WORKASPACE' ) );
#224 = DATE_TIME_ROLE ( 'classification_date' ) ;
#225 = APPROVAL ( #140, 'UNSPECIFIED' ) ;
#226 = PERSON ( 'UNSPECIFIED', 'UNSPECIFIED', 'UNSPECIFIED', ('UNSPECIFIED'), ('UNSPECIFIED'), ('UNSPECIFIED') ) ;
#227 = AXIS2_PLACEMENT_3D ( 'NONE', #94, #106, #177 ) ;
#228 = VERTEX_POINT ( 'NONE', #30 ) ;
#229 = ORIENTED_EDGE ( 'NONE', *, *, #70, .T. ) ;
#230 = FACE_OUTER_BOUND ( 'NONE', #127, .T. ) ;
#231 = CC_DESIGN_DATE_AND_TIME_ASSIGNMENT ( #39, #224, ( #110 ) ) ;
#232 = DIRECTION ( 'NONE',  ( 1.000000000000000000, 0.0000000000000000000, 0.0000000000000000000 ) ) ;
#233 = ORIENTED_EDGE ( 'NONE', *, *, #126, .T. ) ;
#234 = DIRECTION ( 'NONE',  ( -3.491481338843133355E-15, 1.224646799147353207E-16, -1.000000000000000000 ) ) ;
#235 = PRODUCT_DEFINITION_SHAPE ( 'NONE', 'NONE',  #236 ) ;
#236 = PRODUCT_DEFINITION ( 'UNKNOWN', '', #171, #156 ) ;
#237 = CARTESIAN_POINT ( 'NONE',  ( 1.316288464743861212E-13, 1.499999999999993117, 37.69999999999999574 ) ) ;
#238 = DIRECTION ( 'NONE',  ( -3.491481338843133355E-15, 1.224646799147353207E-16, -1.000000000000000000 ) ) ;
#239 = PERSON_AND_ORGANIZATION_ROLE ( 'creator' ) ;
#240 = DIRECTION ( 'NONE',  ( -4.256963957985708013E-31, -1.000000000000000000, -1.219242935835426903E-16 ) ) ;
#241 = CONICAL_SURFACE ( 'NONE', #190, 2.499999999999996447, 0.2617993877991430240 ) ;
#242 = COORDINATED_UNIVERSAL_TIME_OFFSET ( 1, 0, .AHEAD. ) ;
#243 = FACE_OUTER_BOUND ( 'NONE', #49, .T. ) ;
ENDSEC;
END-ISO-10303-21;
