ISO-10303-21;
HEADER;
FILE_DESCRIPTION (( 'STEP AP203' ),
    '1' );
FILE_NAME ('57172.step',
    '2021-11-01T09:45:43',
    ( '' ),
    ( '' ),
    'SwSTEP 2.0',
    'SolidWorks 2019',
    '' );
FILE_SCHEMA (( 'CONFIG_CONTROL_DESIGN' ));
ENDSEC;

DATA;
#1 = ORIENTED_EDGE ( 'NONE', *, *, #175, .T. ) ;
#2 = CC_DESIGN_APPROVAL ( #30, ( #7 ) ) ;
#3 = FACE_OUTER_BOUND ( 'NONE', #150, .T. ) ;
#4 = DIRECTION ( 'NONE',  ( 0.0000000000000000000, -1.000000000000000000, 0.0000000000000000000 ) ) ;
#5 = CLOSED_SHELL ( 'NONE', ( #108, #208, #218 ) ) ;
#6 = DIRECTION ( 'NONE',  ( -4.256963957985711516E-31, -1.000000000000000000, -1.219242935835427396E-16 ) ) ;
#7 = PRODUCT_DEFINITION ( 'UNKNOWN', '', #26, #47 ) ;
#8 = CARTESIAN_POINT ( 'NONE',  ( 1.326762908760390423E-13, 8.998558695971062171E-33, 38.00000000000000000 ) ) ;
#9 = PERSON_AND_ORGANIZATION ( #130, #45 ) ;
#10 = PERSON_AND_ORGANIZATION ( #130, #45 ) ;
#11 = AXIS2_PLACEMENT_3D ( 'NONE', #8, #120, #85 ) ;
#12 = PERSON_AND_ORGANIZATION ( #130, #45 ) ;
#13 = AXIS2_PLACEMENT_3D ( 'NONE', #28, #229, #6 ) ;
#14 = EDGE_LOOP ( 'NONE', ( #133 ) ) ;
#15 = PERSON_AND_ORGANIZATION ( #130, #45 ) ;
#16 = COORDINATED_UNIVERSAL_TIME_OFFSET ( 1, 0, .AHEAD. ) ;
#17 = MANIFOLD_SOLID_BREP ( 'Corps-Déplacer/Copier1[1]', #25 ) ;
#18 = APPROVAL_PERSON_ORGANIZATION ( #12, #90, #147 ) ;
#19 = CC_DESIGN_PERSON_AND_ORGANIZATION_ASSIGNMENT ( #15, #132, ( #26 ) ) ;
#20 = FACE_BOUND ( 'NONE', #124, .T. ) ;
#21 = DIRECTION ( 'NONE',  ( -3.491481338843133355E-15, 1.224646799147353207E-16, -1.000000000000000000 ) ) ;
#22 = ADVANCED_FACE ( 'NONE', ( #154 ), #42, .F. ) ;
#23 = MANIFOLD_SOLID_BREP ( 'Corps-Déplacer/Copier1[2]', #5 ) ;
#24 = DIRECTION ( 'NONE',  ( -3.491481338843133355E-15, 1.219242935835426903E-16, -1.000000000000000000 ) ) ;
#25 = CLOSED_SHELL ( 'NONE', ( #199, #204, #22, #79, #94, #138 ) ) ;
#26 = PRODUCT_DEFINITION_FORMATION_WITH_SPECIFIED_SOURCE ( 'ANY', '', #104, .NOT_KNOWN. ) ;
#27 = CARTESIAN_POINT ( 'NONE',  ( 1.326762908760390423E-13, -4.653657836759941941E-15, 38.00000000000000000 ) ) ;
#28 = CARTESIAN_POINT ( 'NONE',  ( -2.190195747310139052E-30, 7.648274282025760414E-32, -6.272969936696949519E-16 ) ) ;
#29 = DIRECTION ( 'NONE',  ( 0.0000000000000000000, -1.000000000000000000, 0.0000000000000000000 ) ) ;
#30 = APPROVAL ( #197, 'UNSPECIFIED' ) ;
#31 = CALENDAR_DATE ( 2021, 1, 11 ) ;
#32 = CARTESIAN_POINT ( 'NONE',  ( -2.456255994684245956E-30, -0.6250000000000001110, -7.034996771594091580E-16 ) ) ;
#33 = VERTEX_POINT ( 'NONE', #67 ) ;
#34 = APPROVAL_DATE_TIME ( #206, #162 ) ;
#35 = CALENDAR_DATE ( 2021, 1, 11 ) ;
#36 =( GEOMETRIC_REPRESENTATION_CONTEXT ( 3 ) GLOBAL_UNCERTAINTY_ASSIGNED_CONTEXT ( ( #123 ) ) GLOBAL_UNIT_ASSIGNED_CONTEXT ( ( #143, #217, #53 ) ) REPRESENTATION_CONTEXT ( 'NONE', 'WORKASPACE' ) );
#37 = APPROVAL_DATE_TIME ( #110, #90 ) ;
#38 = EDGE_LOOP ( 'NONE', ( #60 ) ) ;
#39 = LOCAL_TIME ( 10, 45, 43.00000000000000000, #182 ) ;
#40 = FACE_OUTER_BOUND ( 'NONE', #221, .T. ) ;
#41 = FACE_OUTER_BOUND ( 'NONE', #38, .T. ) ;
#42 = PLANE ( 'NONE',  #11 ) ;
#43 = CARTESIAN_POINT ( 'NONE',  ( 0.0000000000000000000, 0.0000000000000000000, 0.0000000000000000000 ) ) ;
#44 = CIRCLE ( 'NONE', #107, 0.6249999999999995559 ) ;
#45 = ORGANIZATION ( 'UNSPECIFIED', 'UNSPECIFIED', '' ) ;
#46 = EDGE_LOOP ( 'NONE', ( #92 ) ) ;
#47 = DESIGN_CONTEXT ( 'detailed design', #83, 'design' ) ;
#48 = CARTESIAN_POINT ( 'NONE',  ( 1.316288464743861212E-13, 1.499999999999993117, 37.69999999999999574 ) ) ;
#49 = CC_DESIGN_DATE_AND_TIME_ASSIGNMENT ( #222, #224, ( #117 ) ) ;
#50 = PERSON_AND_ORGANIZATION ( #130, #45 ) ;
#51 = AXIS2_PLACEMENT_3D ( 'NONE', #54, #234, #201 ) ;
#52 = CC_DESIGN_APPROVAL ( #90, ( #26 ) ) ;
#53 =( NAMED_UNIT ( * ) SI_UNIT ( $, .STERADIAN. ) SOLID_ANGLE_UNIT ( ) );
#54 = CARTESIAN_POINT ( 'NONE',  ( 0.0000000000000000000, 0.0000000000000000000, 0.0000000000000000000 ) ) ;
#55 = DIRECTION ( 'NONE',  ( -4.275831445896958607E-31, -1.000000000000000000, -1.224646799147353207E-16 ) ) ;
#56 = AXIS2_PLACEMENT_3D ( 'NONE', #164, #86, #55 ) ;
#57 = CALENDAR_DATE ( 2021, 1, 11 ) ;
#58 = EDGE_LOOP ( 'NONE', ( #179 ) ) ;
#59 = LOCAL_TIME ( 10, 45, 43.00000000000000000, #149 ) ;
#60 = ORIENTED_EDGE ( 'NONE', *, *, #238, .T. ) ;
#61 = DIRECTION ( 'NONE',  ( -3.491481338843133355E-15, 1.224646799147353207E-16, -1.000000000000000000 ) ) ;
#62 = DIRECTION ( 'NONE',  ( 3.491481338843133355E-15, -1.219242935835426903E-16, 1.000000000000000000 ) ) ;
#63 = ORIENTED_EDGE ( 'NONE', *, *, #126, .F. ) ;
#64 = CARTESIAN_POINT ( 'NONE',  ( 9.077851480992146724E-15, 1.124819836996388006E-32, 2.600000000000000089 ) ) ;
#65 = CARTESIAN_POINT ( 'NONE',  ( 2.139876348953036193E-14, -7.472556398903076428E-16, 6.128849451797620418 ) ) ;
#66 = APPLICATION_PROTOCOL_DEFINITION ( 'international standard', 'config_control_design', 1994, #177 ) ;
#67 = CARTESIAN_POINT ( 'NONE',  ( 2.139876348953036193E-14, -1.499999999999996225, 6.128849451797620418 ) ) ;
#68 = FACE_OUTER_BOUND ( 'NONE', #173, .T. ) ;
#69 = CARTESIAN_POINT ( 'NONE',  ( 9.077851480992146724E-15, -0.6249999999999998890, 2.600000000000000089 ) ) ;
#70 = MECHANICAL_CONTEXT ( 'NONE', #177, 'mechanical' ) ;
#71 = CALENDAR_DATE ( 2021, 1, 11 ) ;
#72 = CC_DESIGN_DATE_AND_TIME_ASSIGNMENT ( #113, #114, ( #7 ) ) ;
#73 = COORDINATED_UNIVERSAL_TIME_OFFSET ( 1, 0, .AHEAD. ) ;
#74 = EDGE_LOOP ( 'NONE', ( #205 ) ) ;
#75 = EDGE_LOOP ( 'NONE', ( #243 ) ) ;
#76 = PERSON_AND_ORGANIZATION ( #130, #45 ) ;
#77 = EDGE_CURVE ( 'NONE', #33, #33, #233, .T. ) ;
#78 = FACE_OUTER_BOUND ( 'NONE', #80, .T. ) ;
#79 = ADVANCED_FACE ( 'NONE', ( #82, #78 ), #102, .T. ) ;
#80 = EDGE_LOOP ( 'NONE', ( #171 ) ) ;
#81 = CIRCLE ( 'NONE', #219, 0.6249999999999995559 ) ;
#82 = FACE_BOUND ( 'NONE', #188, .T. ) ;
#83 = APPLICATION_CONTEXT ( 'configuration controlled 3d designs of mechanical parts and assemblies' ) ;
#84 = PLANE ( 'NONE',  #122 ) ;
#85 = DIRECTION ( 'NONE',  ( 4.275831445896958607E-31, 1.000000000000000000, 1.224646799147353207E-16 ) ) ;
#86 = DIRECTION ( 'NONE',  ( 3.491481338843133355E-15, -1.224646799147353207E-16, 1.000000000000000000 ) ) ;
#87 = AXIS2_PLACEMENT_3D ( 'NONE', #96, #213, #196 ) ;
#88 = PLANE ( 'NONE',  #56 ) ;
#89 = CARTESIAN_POINT ( 'NONE',  ( 9.077851480992146724E-15, -0.6249999999999998890, 2.600000000000000089 ) ) ;
#90 = APPROVAL ( #241, 'UNSPECIFIED' ) ;
#91 = CALENDAR_DATE ( 2021, 1, 11 ) ;
#92 = ORIENTED_EDGE ( 'NONE', *, *, #175, .F. ) ;
#93 = DIRECTION ( 'NONE',  ( 0.0000000000000000000, 1.000000000000000000, 0.0000000000000000000 ) ) ;
#94 = ADVANCED_FACE ( 'NONE', ( #40, #141 ), #207, .F. ) ;
#95 = FACE_OUTER_BOUND ( 'NONE', #136, .T. ) ;
#96 = CARTESIAN_POINT ( 'NONE',  ( 9.077851480992145146E-15, -4.336808689942017736E-16, 2.599999999999999645 ) ) ;
#97 = CARTESIAN_POINT ( 'NONE',  ( 3.442914923977189919E-14, -1.202283298221045572E-15, 9.860900259366600196 ) ) ;
#98 = EDGE_CURVE ( 'NONE', #184, #184, #112, .T. ) ;
#99 = ADVANCED_BREP_SHAPE_REPRESENTATION ( '57172', ( #17, #23, #148 ), #36 ) ;
#100 = DIRECTION ( 'NONE',  ( -4.275831445896958607E-31, -1.000000000000000000, -1.224646799147353207E-16 ) ) ;
#101 = CARTESIAN_POINT ( 'NONE',  ( 1.316288464743861212E-13, -4.616918432785521081E-15, 37.69999999999999574 ) ) ;
#102 = CONICAL_SURFACE ( 'NONE', #215, 2.499999999999996447, 0.2617993877991428575 ) ;
#103 = APPROVAL_DATE_TIME ( #198, #30 ) ;
#104 = PRODUCT ( '57172', '57172', '', ( #70 ) ) ;
#105 = PERSON_AND_ORGANIZATION_ROLE ( 'creator' ) ;
#106 = VERTEX_POINT ( 'NONE', #89 ) ;
#107 = AXIS2_PLACEMENT_3D ( 'NONE', #227, #180, #4 ) ;
#108 = ADVANCED_FACE ( 'NONE', ( #41 ), #232, .T. ) ;
#109 = PRODUCT_DEFINITION_SHAPE ( 'NONE', 'NONE',  #7 ) ;
#110 = DATE_AND_TIME ( #35, #194 ) ;
#111 = ORIENTED_EDGE ( 'NONE', *, *, #126, .T. ) ;
#112 = CIRCLE ( 'NONE', #240, 0.6931483474218601559 ) ;
#113 = DATE_AND_TIME ( #71, #166 ) ;
#114 = DATE_TIME_ROLE ( 'creation_date' ) ;
#115 = AXIS2_PLACEMENT_3D ( 'NONE', #27, #21, #93 ) ;
#116 = AXIS2_PLACEMENT_3D ( 'NONE', #101, #168, #202 ) ;
#117 = SECURITY_CLASSIFICATION ( '', '', #239 ) ;
#118 = DIRECTION ( 'NONE',  ( 3.491481338843133355E-15, -1.224646799147353207E-16, 1.000000000000000000 ) ) ;
#119 = EDGE_CURVE ( 'NONE', #163, #163, #128, .T. ) ;
#120 = DIRECTION ( 'NONE',  ( -3.491481338843133355E-15, 1.224646799147353207E-16, -1.000000000000000000 ) ) ;
#121 = DIRECTION ( 'NONE',  ( -4.275831445896958607E-31, -1.000000000000000000, -1.224646799147353207E-16 ) ) ;
#122 = AXIS2_PLACEMENT_3D ( 'NONE', #64, #118, #100 ) ;
#123 = UNCERTAINTY_MEASURE_WITH_UNIT (LENGTH_MEASURE( 1.000000000000000082E-05 ), #143, 'distance_accuracy_value', 'NONE');
#124 = EDGE_LOOP ( 'NONE', ( #226 ) ) ;
#125 = VERTEX_POINT ( 'NONE', #32 ) ;
#126 = EDGE_CURVE ( 'NONE', #125, #125, #153, .T. ) ;
#127 = CARTESIAN_POINT ( 'NONE',  ( 1.326762908760390423E-13, 1.199999999999993294, 38.00000000000000000 ) ) ;
#128 = CIRCLE ( 'NONE', #225, 1.199999999999997957 ) ;
#129 = APPROVAL_PERSON_ORGANIZATION ( #220, #162, #169 ) ;
#130 = PERSON ( 'UNSPECIFIED', 'UNSPECIFIED', 'UNSPECIFIED', ('UNSPECIFIED'), ('UNSPECIFIED'), ('UNSPECIFIED') ) ;
#131 = VERTEX_POINT ( 'NONE', #69 ) ;
#132 = PERSON_AND_ORGANIZATION_ROLE ( 'design_supplier' ) ;
#133 = ORIENTED_EDGE ( 'NONE', *, *, #231, .F. ) ;
#134 = CC_DESIGN_PERSON_AND_ORGANIZATION_ASSIGNMENT ( #50, #200, ( #104 ) ) ;
#135 = CC_DESIGN_SECURITY_CLASSIFICATION ( #117, ( #26 ) ) ;
#136 = EDGE_LOOP ( 'NONE', ( #152 ) ) ;
#137 = DIRECTION ( 'NONE',  ( 0.0000000000000000000, -1.000000000000000000, 0.0000000000000000000 ) ) ;
#138 = ADVANCED_FACE ( 'NONE', ( #192 ), #84, .F. ) ;
#139 = FACE_OUTER_BOUND ( 'NONE', #159, .T. ) ;
#140 = AXIS2_PLACEMENT_3D ( 'NONE', #43, #61, #210 ) ;
#141 = FACE_OUTER_BOUND ( 'NONE', #58, .T. ) ;
#142 = DIRECTION ( 'NONE',  ( 1.000000000000000000, 0.0000000000000000000, 0.0000000000000000000 ) ) ;
#143 =( LENGTH_UNIT ( ) NAMED_UNIT ( * ) SI_UNIT ( .MILLI., .METRE. ) );
#144 = VERTEX_POINT ( 'NONE', #48 ) ;
#145 = CONICAL_SURFACE ( 'NONE', #115, 1.199999999999997957, 0.7853981633974450594 ) ;
#146 = APPROVAL_ROLE ( '' ) ;
#147 = APPROVAL_ROLE ( '' ) ;
#148 = AXIS2_PLACEMENT_3D ( 'NONE', #165, #161, #142 ) ;
#149 = COORDINATED_UNIVERSAL_TIME_OFFSET ( 1, 0, .AHEAD. ) ;
#150 = EDGE_LOOP ( 'NONE', ( #111 ) ) ;
#151 = COORDINATED_UNIVERSAL_TIME_OFFSET ( 1, 0, .AHEAD. ) ;
#152 = ORIENTED_EDGE ( 'NONE', *, *, #238, .F. ) ;
#153 = CIRCLE ( 'NONE', #13, 0.6250000000000001110 ) ;
#154 = FACE_OUTER_BOUND ( 'NONE', #74, .T. ) ;
#155 = DIRECTION ( 'NONE',  ( 3.491481338843133355E-15, -1.219242935835426903E-16, 1.000000000000000000 ) ) ;
#156 = DIRECTION ( 'NONE',  ( 3.491481338843133355E-15, -1.224646799147353207E-16, 1.000000000000000000 ) ) ;
#157 = CC_DESIGN_PERSON_AND_ORGANIZATION_ASSIGNMENT ( #185, #189, ( #117 ) ) ;
#158 = FACE_OUTER_BOUND ( 'NONE', #75, .T. ) ;
#159 = EDGE_LOOP ( 'NONE', ( #223 ) ) ;
#160 = APPROVAL_PERSON_ORGANIZATION ( #10, #30, #146 ) ;
#161 = DIRECTION ( 'NONE',  ( 0.0000000000000000000, 0.0000000000000000000, 1.000000000000000000 ) ) ;
#162 = APPROVAL ( #172, 'UNSPECIFIED' ) ;
#163 = VERTEX_POINT ( 'NONE', #127 ) ;
#164 = CARTESIAN_POINT ( 'NONE',  ( -6.413803915257455362E-31, 2.249659577954771652E-32, -1.836986451539392583E-16 ) ) ;
#165 = CARTESIAN_POINT ( 'NONE',  ( 0.0000000000000000000, 0.0000000000000000000, 0.0000000000000000000 ) ) ;
#166 = LOCAL_TIME ( 10, 45, 43.00000000000000000, #16 ) ;
#167 = CC_DESIGN_PERSON_AND_ORGANIZATION_ASSIGNMENT ( #76, #203, ( #26 ) ) ;
#168 = DIRECTION ( 'NONE',  ( -3.491481338843133355E-15, 1.224646799147353207E-16, -1.000000000000000000 ) ) ;
#169 = APPROVAL_ROLE ( '' ) ;
#170 = PRODUCT_RELATED_PRODUCT_CATEGORY ( 'detail', '', ( #104 ) ) ;
#171 = ORIENTED_EDGE ( 'NONE', *, *, #77, .T. ) ;
#172 = APPROVAL_STATUS ( 'not_yet_approved' ) ;
#173 = EDGE_LOOP ( 'NONE', ( #63 ) ) ;
#174 = CARTESIAN_POINT ( 'NONE',  ( 1.088517521321740310E-14, -3.801158217973932592E-16, 3.117638090205028689 ) ) ;
#175 = EDGE_CURVE ( 'NONE', #131, #131, #44, .T. ) ;
#176 = CYLINDRICAL_SURFACE ( 'NONE', #51, 0.6249999999999998890 ) ;
#177 = APPLICATION_CONTEXT ( 'configuration controlled 3d designs of mechanical parts and assemblies' ) ;
#178 = DIRECTION ( 'NONE',  ( 0.0000000000000000000, -1.000000000000000000, 0.0000000000000000000 ) ) ;
#179 = ORIENTED_EDGE ( 'NONE', *, *, #98, .F. ) ;
#180 = DIRECTION ( 'NONE',  ( 3.491481338843133355E-15, -1.219242935835426903E-16, 1.000000000000000000 ) ) ;
#181 = LOCAL_TIME ( 10, 45, 43.00000000000000000, #151 ) ;
#182 = COORDINATED_UNIVERSAL_TIME_OFFSET ( 1, 0, .AHEAD. ) ;
#183 = APPLICATION_PROTOCOL_DEFINITION ( 'international standard', 'config_control_design', 1994, #83 ) ;
#184 = VERTEX_POINT ( 'NONE', #237 ) ;
#185 = PERSON_AND_ORGANIZATION ( #130, #45 ) ;
#186 = ORIENTED_EDGE ( 'NONE', *, *, #98, .T. ) ;
#187 = CC_DESIGN_PERSON_AND_ORGANIZATION_ASSIGNMENT ( #9, #105, ( #7 ) ) ;
#188 = EDGE_LOOP ( 'NONE', ( #186 ) ) ;
#189 = PERSON_AND_ORGANIZATION_ROLE ( 'classification_officer' ) ;
#190 = CIRCLE ( 'NONE', #116, 1.499999999999997558 ) ;
#191 = FACE_OUTER_BOUND ( 'NONE', #14, .T. ) ;
#192 = FACE_OUTER_BOUND ( 'NONE', #46, .T. ) ;
#193 = DIRECTION ( 'NONE',  ( -3.491481338843133355E-15, 1.224646799147353207E-16, -1.000000000000000000 ) ) ;
#194 = LOCAL_TIME ( 10, 45, 43.00000000000000000, #73 ) ;
#195 = DIRECTION ( 'NONE',  ( 0.0000000000000000000, 1.000000000000000000, 0.0000000000000000000 ) ) ;
#196 = DIRECTION ( 'NONE',  ( -4.314380810749513187E-31, -1.000000000000000000, -1.219242935835426903E-16 ) ) ;
#197 = APPROVAL_STATUS ( 'not_yet_approved' ) ;
#198 = DATE_AND_TIME ( #31, #39 ) ;
#199 = ADVANCED_FACE ( 'NONE', ( #139, #158 ), #214, .T. ) ;
#200 = PERSON_AND_ORGANIZATION_ROLE ( 'design_owner' ) ;
#201 = DIRECTION ( 'NONE',  ( -4.256963957985708889E-31, -1.000000000000000000, -1.219242935835426903E-16 ) ) ;
#202 = DIRECTION ( 'NONE',  ( 0.0000000000000000000, 1.000000000000000000, 0.0000000000000000000 ) ) ;
#203 = PERSON_AND_ORGANIZATION_ROLE ( 'creator' ) ;
#204 = ADVANCED_FACE ( 'NONE', ( #191, #20 ), #145, .T. ) ;
#205 = ORIENTED_EDGE ( 'NONE', *, *, #119, .F. ) ;
#206 = DATE_AND_TIME ( #57, #59 ) ;
#207 = TOROIDAL_SURFACE ( 'NONE', #87, 2.625000000000000000, 2.000000000000000000 ) ;
#208 = ADVANCED_FACE ( 'NONE', ( #3, #95 ), #176, .T. ) ;
#209 = SHAPE_DEFINITION_REPRESENTATION ( #109, #99 ) ;
#210 = DIRECTION ( 'NONE',  ( 4.275831445896958607E-31, 1.000000000000000000, 1.224646799147353207E-16 ) ) ;
#211 = AXIS2_PLACEMENT_3D ( 'NONE', #65, #24, #228 ) ;
#212 = CARTESIAN_POINT ( 'NONE',  ( 1.326762908760390423E-13, -4.653657836759941941E-15, 38.00000000000000000 ) ) ;
#213 = DIRECTION ( 'NONE',  ( 3.491481338843133355E-15, -1.219242935835426903E-16, 1.000000000000000000 ) ) ;
#214 = CYLINDRICAL_SURFACE ( 'NONE', #140, 1.499999999999995559 ) ;
#215 = AXIS2_PLACEMENT_3D ( 'NONE', #97, #62, #137 ) ;
#216 = DIRECTION ( 'NONE',  ( 3.491481338843133355E-15, -1.219242935835426903E-16, 1.000000000000000000 ) ) ;
#217 =( NAMED_UNIT ( * ) PLANE_ANGLE_UNIT ( ) SI_UNIT ( $, .RADIAN. ) );
#218 = ADVANCED_FACE ( 'NONE', ( #68 ), #88, .F. ) ;
#219 = AXIS2_PLACEMENT_3D ( 'NONE', #235, #216, #29 ) ;
#220 = PERSON_AND_ORGANIZATION ( #130, #45 ) ;
#221 = EDGE_LOOP ( 'NONE', ( #1 ) ) ;
#222 = DATE_AND_TIME ( #91, #181 ) ;
#223 = ORIENTED_EDGE ( 'NONE', *, *, #231, .T. ) ;
#224 = DATE_TIME_ROLE ( 'classification_date' ) ;
#225 = AXIS2_PLACEMENT_3D ( 'NONE', #212, #193, #195 ) ;
#226 = ORIENTED_EDGE ( 'NONE', *, *, #119, .T. ) ;
#227 = CARTESIAN_POINT ( 'NONE',  ( 9.077851480992146724E-15, -3.170031633172109848E-16, 2.600000000000000089 ) ) ;
#228 = DIRECTION ( 'NONE',  ( 0.0000000000000000000, -1.000000000000000000, 0.0000000000000000000 ) ) ;
#229 = DIRECTION ( 'NONE',  ( 3.491481338843133355E-15, -1.219242935835426903E-16, 1.000000000000000000 ) ) ;
#230 = CARTESIAN_POINT ( 'NONE',  ( 9.077851480992146724E-15, 1.124819836996388006E-32, 2.600000000000000089 ) ) ;
#231 = EDGE_CURVE ( 'NONE', #144, #144, #190, .T. ) ;
#232 = PLANE ( 'NONE',  #236 ) ;
#233 = CIRCLE ( 'NONE', #211, 1.499999999999995559 ) ;
#234 = DIRECTION ( 'NONE',  ( 3.491481338843133355E-15, -1.219242935835426903E-16, 1.000000000000000000 ) ) ;
#235 = CARTESIAN_POINT ( 'NONE',  ( 9.077851480992146724E-15, -3.170031633172109848E-16, 2.600000000000000089 ) ) ;
#236 = AXIS2_PLACEMENT_3D ( 'NONE', #230, #156, #121 ) ;
#237 = CARTESIAN_POINT ( 'NONE',  ( 1.088517521321740310E-14, -0.6931483474218606000, 3.117638090205028689 ) ) ;
#238 = EDGE_CURVE ( 'NONE', #106, #106, #81, .T. ) ;
#239 = SECURITY_CLASSIFICATION_LEVEL ( 'unclassified' ) ;
#240 = AXIS2_PLACEMENT_3D ( 'NONE', #174, #155, #178 ) ;
#241 = APPROVAL_STATUS ( 'not_yet_approved' ) ;
#242 = CC_DESIGN_APPROVAL ( #162, ( #117 ) ) ;
#243 = ORIENTED_EDGE ( 'NONE', *, *, #77, .F. ) ;
ENDSEC;
END-ISO-10303-21;
