ISO-10303-21;
HEADER;
FILE_DESCRIPTION (( 'STEP AP203' ),
    '1' );
FILE_NAME ('57171.step',
    '2021-11-01T09:45:42',
    ( '' ),
    ( '' ),
    'SwSTEP 2.0',
    'SolidWorks 2019',
    '' );
FILE_SCHEMA (( 'CONFIG_CONTROL_DESIGN' ));
ENDSEC;

DATA;
#1 = CALENDAR_DATE ( 2021, 1, 11 ) ;
#2 = CARTESIAN_POINT ( 'NONE',  ( 2.094888803305880013E-14, 1.124819836996387458E-32, 6.000000000000000000 ) ) ;
#3 = APPROVAL_DATE_TIME ( #24, #186 ) ;
#4 = PLANE ( 'NONE',  #169 ) ;
#5 = CC_DESIGN_APPROVAL ( #35, ( #61 ) ) ;
#6 = PERSON_AND_ORGANIZATION ( #187, #188 ) ;
#7 = DIRECTION ( 'NONE',  ( -4.275831445896958607E-31, -1.000000000000000000, -1.224646799147353207E-16 ) ) ;
#8 = COORDINATED_UNIVERSAL_TIME_OFFSET ( 1, 0, .AHEAD. ) ;
#9 = FACE_OUTER_BOUND ( 'NONE', #91, .T. ) ;
#10 = MANIFOLD_SOLID_BREP ( 'Corps-Déplacer/Copier1[2]', #46 ) ;
#11 = ADVANCED_FACE ( 'NONE', ( #158 ), #4, .T. ) ;
#12 = PRODUCT_DEFINITION_SHAPE ( 'NONE', 'NONE',  #61 ) ;
#13 = CARTESIAN_POINT ( 'NONE',  ( -2.434971174894316830E-30, -0.5999999999999998668, -6.974034624802318558E-16 ) ) ;
#14 = AXIS2_PLACEMENT_3D ( 'NONE', #181, #162, #123 ) ;
#15 = CARTESIAN_POINT ( 'NONE',  ( 2.275621176528404862E-14, -7.946584199814381695E-16, 6.517638090205026380 ) ) ;
#16 = ORIENTED_EDGE ( 'NONE', *, *, #78, .T. ) ;
#17 = AXIS2_PLACEMENT_3D ( 'NONE', #2, #210, #226 ) ;
#18 = CC_DESIGN_PERSON_AND_ORGANIZATION_ASSIGNMENT ( #190, #22, ( #147 ) ) ;
#19 = EDGE_LOOP ( 'NONE', ( #41 ) ) ;
#20 = DATE_TIME_ROLE ( 'creation_date' ) ;
#21 = CIRCLE ( 'NONE', #143, 0.5999999999999997558 ) ;
#22 = PERSON_AND_ORGANIZATION_ROLE ( 'design_supplier' ) ;
#23 = DIRECTION ( 'NONE',  ( -4.256963957985708889E-31, -1.000000000000000000, -1.219242935835426903E-16 ) ) ;
#24 = DATE_AND_TIME ( #80, #83 ) ;
#25 = DIRECTION ( 'NONE',  ( 3.491481338843133355E-15, -1.219242935835426903E-16, 1.000000000000000000 ) ) ;
#26 = CIRCLE ( 'NONE', #92, 1.499999999999997558 ) ;
#27 = AXIS2_PLACEMENT_3D ( 'NONE', #157, #197, #209 ) ;
#28 = APPLICATION_CONTEXT ( 'configuration controlled 3d designs of mechanical parts and assemblies' ) ;
#29 = DIRECTION ( 'NONE',  ( 0.0000000000000000000, -1.000000000000000000, 0.0000000000000000000 ) ) ;
#30 = CARTESIAN_POINT ( 'NONE',  ( 1.316288464743861212E-13, -4.616918432785521081E-15, 37.69999999999999574 ) ) ;
#31 = DIRECTION ( 'NONE',  ( 3.491481338843133355E-15, -1.219242935835426903E-16, 1.000000000000000000 ) ) ;
#32 = DIRECTION ( 'NONE',  ( 3.491481338843133355E-15, -1.219242935835426903E-16, 1.000000000000000000 ) ) ;
#33 = AXIS2_PLACEMENT_3D ( 'NONE', #159, #25, #23 ) ;
#34 = LOCAL_TIME ( 10, 45, 42.00000000000000000, #113 ) ;
#35 = APPROVAL ( #75, 'UNSPECIFIED' ) ;
#36 = VERTEX_POINT ( 'NONE', #168 ) ;
#37 = CC_DESIGN_APPROVAL ( #166, ( #73 ) ) ;
#38 = VERTEX_POINT ( 'NONE', #51 ) ;
#39 = ORIENTED_EDGE ( 'NONE', *, *, #208, .F. ) ;
#40 = PERSON_AND_ORGANIZATION_ROLE ( 'creator' ) ;
#41 = ORIENTED_EDGE ( 'NONE', *, *, #149, .F. ) ;
#42 = APPLICATION_PROTOCOL_DEFINITION ( 'international standard', 'config_control_design', 1994, #28 ) ;
#43 = CARTESIAN_POINT ( 'NONE',  ( 1.326762908760390423E-13, -4.653657836759941941E-15, 38.00000000000000000 ) ) ;
#44 = DATE_AND_TIME ( #1, #218 ) ;
#45 = CC_DESIGN_PERSON_AND_ORGANIZATION_ASSIGNMENT ( #55, #40, ( #61 ) ) ;
#46 = CLOSED_SHELL ( 'NONE', ( #11, #84, #173 ) ) ;
#47 = DIRECTION ( 'NONE',  ( 4.275831445896958607E-31, 1.000000000000000000, 1.224646799147353207E-16 ) ) ;
#48 = APPROVAL_PERSON_ORGANIZATION ( #131, #35, #117 ) ;
#49 = VERTEX_POINT ( 'NONE', #211 ) ;
#50 = DIRECTION ( 'NONE',  ( 3.491481338843133355E-15, -1.219242935835426903E-16, 1.000000000000000000 ) ) ;
#51 = CARTESIAN_POINT ( 'NONE',  ( 1.316288464743861212E-13, 1.499999999999993117, 37.69999999999999574 ) ) ;
#52 = CIRCLE ( 'NONE', #179, 1.499999999999995781 ) ;
#53 = PERSON_AND_ORGANIZATION_ROLE ( 'design_owner' ) ;
#54 = EDGE_LOOP ( 'NONE', ( #189 ) ) ;
#55 = PERSON_AND_ORGANIZATION ( #187, #188 ) ;
#56 = ORIENTED_EDGE ( 'NONE', *, *, #78, .F. ) ;
#57 = APPROVAL_DATE_TIME ( #44, #166 ) ;
#58 = DIRECTION ( 'NONE',  ( -4.256963957985706261E-31, -1.000000000000000000, -1.219242935835426903E-16 ) ) ;
#59 = PERSON_AND_ORGANIZATION ( #187, #188 ) ;
#60 = CARTESIAN_POINT ( 'NONE',  ( 2.094888803305880013E-14, -8.673617379884035472E-16, 6.000000000000000000 ) ) ;
#61 = PRODUCT_DEFINITION ( 'UNKNOWN', '', #147, #69 ) ;
#62 = COORDINATED_UNIVERSAL_TIME_OFFSET ( 1, 0, .AHEAD. ) ;
#63 = FACE_OUTER_BOUND ( 'NONE', #132, .T. ) ;
#64 = FACE_OUTER_BOUND ( 'NONE', #219, .T. ) ;
#65 = CARTESIAN_POINT ( 'NONE',  ( 2.094888803305880013E-14, -7.315457615012561416E-16, 6.000000000000000000 ) ) ;
#66 = PLANE ( 'NONE',  #108 ) ;
#67 = CIRCLE ( 'NONE', #114, 0.5999999999999997558 ) ;
#68 = DIRECTION ( 'NONE',  ( 3.491481338843133355E-15, -1.219242935835426903E-16, 1.000000000000000000 ) ) ;
#69 = DESIGN_CONTEXT ( 'detailed design', #28, 'design' ) ;
#70 = APPROVAL_PERSON_ORGANIZATION ( #59, #166, #192 ) ;
#71 = CIRCLE ( 'NONE', #236, 1.199999999999997957 ) ;
#72 = EDGE_LOOP ( 'NONE', ( #16 ) ) ;
#73 = SECURITY_CLASSIFICATION ( '', '', #94 ) ;
#74 = ADVANCED_FACE ( 'NONE', ( #229, #205 ), #163, .F. ) ;
#75 = APPROVAL_STATUS ( 'not_yet_approved' ) ;
#76 = DIRECTION ( 'NONE',  ( -3.491481338843133355E-15, 1.224646799147353207E-16, -1.000000000000000000 ) ) ;
#77 = CALENDAR_DATE ( 2021, 1, 11 ) ;
#78 = EDGE_CURVE ( 'NONE', #49, #49, #52, .T. ) ;
#79 = CONICAL_SURFACE ( 'NONE', #14, 1.199999999999997957, 0.7853981633974450594 ) ;
#80 = CALENDAR_DATE ( 2021, 1, 11 ) ;
#81 = EDGE_CURVE ( 'NONE', #105, #105, #71, .T. ) ;
#82 = CARTESIAN_POINT ( 'NONE',  ( 0.0000000000000000000, 0.0000000000000000000, 0.0000000000000000000 ) ) ;
#83 = LOCAL_TIME ( 10, 45, 42.00000000000000000, #62 ) ;
#84 = ADVANCED_FACE ( 'NONE', ( #9, #63 ), #171, .T. ) ;
#85 = AXIS2_PLACEMENT_3D ( 'NONE', #60, #137, #115 ) ;
#86 = CIRCLE ( 'NONE', #221, 0.5999999999999998668 ) ;
#87 = DIRECTION ( 'NONE',  ( -3.491481338843133355E-15, 1.224646799147353207E-16, -1.000000000000000000 ) ) ;
#88 =( NAMED_UNIT ( * ) SI_UNIT ( $, .STERADIAN. ) SOLID_ANGLE_UNIT ( ) );
#89 = CARTESIAN_POINT ( 'NONE',  ( 2.275621176528404862E-14, -0.6681483474218601337, 6.517638090205026380 ) ) ;
#90 = MANIFOLD_SOLID_BREP ( 'Corps-Déplacer/Copier1[1]', #227 ) ;
#91 = EDGE_LOOP ( 'NONE', ( #152 ) ) ;
#92 = AXIS2_PLACEMENT_3D ( 'NONE', #30, #177, #199 ) ;
#93 = PLANE ( 'NONE',  #119 ) ;
#94 = SECURITY_CLASSIFICATION_LEVEL ( 'unclassified' ) ;
#95 = PLANE ( 'NONE',  #17 ) ;
#96 = PERSON_AND_ORGANIZATION ( #187, #188 ) ;
#97 = CARTESIAN_POINT ( 'NONE',  ( 3.359555968535306615E-14, -1.173173929532621778E-15, 9.622150721986848509 ) ) ;
#98 = CALENDAR_DATE ( 2021, 1, 11 ) ;
#99 = ORIENTED_EDGE ( 'NONE', *, *, #208, .T. ) ;
#100 = DIRECTION ( 'NONE',  ( -4.275831445896958607E-31, -1.000000000000000000, -1.224646799147353207E-16 ) ) ;
#101 = ADVANCED_FACE ( 'NONE', ( #64 ), #95, .F. ) ;
#102 = PRODUCT ( '57171', '57171', '', ( #230 ) ) ;
#103 = FACE_OUTER_BOUND ( 'NONE', #238, .T. ) ;
#104 = EDGE_CURVE ( 'NONE', #212, #212, #86, .T. ) ;
#105 = VERTEX_POINT ( 'NONE', #140 ) ;
#106 = CC_DESIGN_APPROVAL ( #186, ( #147 ) ) ;
#107 = APPLICATION_PROTOCOL_DEFINITION ( 'international standard', 'config_control_design', 1994, #129 ) ;
#108 = AXIS2_PLACEMENT_3D ( 'NONE', #180, #234, #100 ) ;
#109 =( GEOMETRIC_REPRESENTATION_CONTEXT ( 3 ) GLOBAL_UNCERTAINTY_ASSIGNED_CONTEXT ( ( #215 ) ) GLOBAL_UNIT_ASSIGNED_CONTEXT ( ( #183, #165, #88 ) ) REPRESENTATION_CONTEXT ( 'NONE', 'WORKASPACE' ) );
#110 = EDGE_LOOP ( 'NONE', ( #56 ) ) ;
#111 = COORDINATED_UNIVERSAL_TIME_OFFSET ( 1, 0, .AHEAD. ) ;
#112 = DIRECTION ( 'NONE',  ( 3.491481338843133355E-15, -1.219242935835426903E-16, 1.000000000000000000 ) ) ;
#113 = COORDINATED_UNIVERSAL_TIME_OFFSET ( 1, 0, .AHEAD. ) ;
#114 = AXIS2_PLACEMENT_3D ( 'NONE', #65, #50, #164 ) ;
#115 = DIRECTION ( 'NONE',  ( -4.372421759739010953E-31, -1.000000000000000000, -1.219242935835426903E-16 ) ) ;
#116 = DATE_AND_TIME ( #77, #144 ) ;
#117 = APPROVAL_ROLE ( '' ) ;
#118 = EDGE_LOOP ( 'NONE', ( #220 ) ) ;
#119 = AXIS2_PLACEMENT_3D ( 'NONE', #242, #76, #207 ) ;
#120 = CC_DESIGN_DATE_AND_TIME_ASSIGNMENT ( #116, #20, ( #61 ) ) ;
#121 = FACE_BOUND ( 'NONE', #118, .T. ) ;
#122 = ADVANCED_FACE ( 'NONE', ( #191 ), #93, .F. ) ;
#123 = DIRECTION ( 'NONE',  ( 0.0000000000000000000, 1.000000000000000000, 0.0000000000000000000 ) ) ;
#124 = ADVANCED_FACE ( 'NONE', ( #194, #121 ), #79, .T. ) ;
#125 = CARTESIAN_POINT ( 'NONE',  ( 2.094888803305880013E-14, -0.6000000000000005329, 6.000000000000000000 ) ) ;
#126 = AXIS2_PLACEMENT_3D ( 'NONE', #160, #31, #233 ) ;
#127 = CC_DESIGN_SECURITY_CLASSIFICATION ( #73, ( #147 ) ) ;
#128 = VERTEX_POINT ( 'NONE', #125 ) ;
#129 = APPLICATION_CONTEXT ( 'configuration controlled 3d designs of mechanical parts and assemblies' ) ;
#130 = EDGE_LOOP ( 'NONE', ( #167 ) ) ;
#131 = PERSON_AND_ORGANIZATION ( #187, #188 ) ;
#132 = EDGE_LOOP ( 'NONE', ( #39 ) ) ;
#133 = DATE_AND_TIME ( #228, #156 ) ;
#134 = CC_DESIGN_PERSON_AND_ORGANIZATION_ASSIGNMENT ( #96, #53, ( #102 ) ) ;
#135 = EDGE_LOOP ( 'NONE', ( #223 ) ) ;
#136 = SHAPE_DEFINITION_REPRESENTATION ( #12, #195 ) ;
#137 = DIRECTION ( 'NONE',  ( 3.491481338843133355E-15, -1.219242935835426903E-16, 1.000000000000000000 ) ) ;
#138 = PERSON_AND_ORGANIZATION_ROLE ( 'classification_officer' ) ;
#139 = CARTESIAN_POINT ( 'NONE',  ( 2.094888803305880013E-14, -7.315457615012561416E-16, 6.000000000000000000 ) ) ;
#140 = CARTESIAN_POINT ( 'NONE',  ( 1.326762908760390423E-13, 1.199999999999993294, 38.00000000000000000 ) ) ;
#141 = CC_DESIGN_PERSON_AND_ORGANIZATION_ASSIGNMENT ( #241, #225, ( #147 ) ) ;
#142 = DIRECTION ( 'NONE',  ( 0.0000000000000000000, -1.000000000000000000, 0.0000000000000000000 ) ) ;
#143 = AXIS2_PLACEMENT_3D ( 'NONE', #139, #32, #142 ) ;
#144 = LOCAL_TIME ( 10, 45, 42.00000000000000000, #111 ) ;
#145 = CYLINDRICAL_SURFACE ( 'NONE', #217, 1.499999999999995781 ) ;
#146 = FACE_OUTER_BOUND ( 'NONE', #110, .T. ) ;
#147 = PRODUCT_DEFINITION_FORMATION_WITH_SPECIFIED_SOURCE ( 'ANY', '', #102, .NOT_KNOWN. ) ;
#148 = ORIENTED_EDGE ( 'NONE', *, *, #239, .F. ) ;
#149 = EDGE_CURVE ( 'NONE', #38, #38, #26, .T. ) ;
#150 = ORIENTED_EDGE ( 'NONE', *, *, #104, .F. ) ;
#151 = CIRCLE ( 'NONE', #214, 0.6681483474218593566 ) ;
#152 = ORIENTED_EDGE ( 'NONE', *, *, #104, .T. ) ;
#153 = DATE_AND_TIME ( #98, #34 ) ;
#154 = ORIENTED_EDGE ( 'NONE', *, *, #149, .T. ) ;
#155 = DIRECTION ( 'NONE',  ( 3.491481338843133355E-15, -1.224646799147353207E-16, 1.000000000000000000 ) ) ;
#156 = LOCAL_TIME ( 10, 45, 42.00000000000000000, #8 ) ;
#157 = CARTESIAN_POINT ( 'NONE',  ( 0.0000000000000000000, 0.0000000000000000000, 0.0000000000000000000 ) ) ;
#158 = FACE_OUTER_BOUND ( 'NONE', #184, .T. ) ;
#159 = CARTESIAN_POINT ( 'NONE',  ( 0.0000000000000000000, 0.0000000000000000000, 0.0000000000000000000 ) ) ;
#160 = CARTESIAN_POINT ( 'NONE',  ( 4.662594543559460026E-14, -1.628201587863359806E-15, 13.35420152955583006 ) ) ;
#161 = FACE_OUTER_BOUND ( 'NONE', #203, .T. ) ;
#162 = DIRECTION ( 'NONE',  ( -3.491481338843133355E-15, 1.224646799147353207E-16, -1.000000000000000000 ) ) ;
#163 = TOROIDAL_SURFACE ( 'NONE', #85, 2.600000000000000089, 2.000000000000000000 ) ;
#164 = DIRECTION ( 'NONE',  ( 0.0000000000000000000, -1.000000000000000000, 0.0000000000000000000 ) ) ;
#165 =( NAMED_UNIT ( * ) PLANE_ANGLE_UNIT ( ) SI_UNIT ( $, .RADIAN. ) );
#166 = APPROVAL ( #222, 'UNSPECIFIED' ) ;
#167 = ORIENTED_EDGE ( 'NONE', *, *, #178, .T. ) ;
#168 = CARTESIAN_POINT ( 'NONE',  ( 2.094888803305880013E-14, -0.6000000000000005329, 6.000000000000000000 ) ) ;
#169 = AXIS2_PLACEMENT_3D ( 'NONE', #231, #155, #7 ) ;
#170 = APPROVAL_ROLE ( '' ) ;
#171 = CYLINDRICAL_SURFACE ( 'NONE', #33, 0.5999999999999998668 ) ;
#172 = COORDINATED_UNIVERSAL_TIME_OFFSET ( 1, 0, .AHEAD. ) ;
#173 = ADVANCED_FACE ( 'NONE', ( #161 ), #66, .F. ) ;
#174 = CARTESIAN_POINT ( 'NONE',  ( -2.179553337415174664E-30, 7.611110448611144827E-32, -6.242488863301063008E-16 ) ) ;
#175 = APPROVAL_STATUS ( 'not_yet_approved' ) ;
#176 = DIRECTION ( 'NONE',  ( -3.491481338843133355E-15, 1.224646799147353207E-16, -1.000000000000000000 ) ) ;
#177 = DIRECTION ( 'NONE',  ( -3.491481338843133355E-15, 1.224646799147353207E-16, -1.000000000000000000 ) ) ;
#178 = EDGE_CURVE ( 'NONE', #202, #202, #151, .T. ) ;
#179 = AXIS2_PLACEMENT_3D ( 'NONE', #97, #198, #29 ) ;
#180 = CARTESIAN_POINT ( 'NONE',  ( -6.413803915257455362E-31, 2.249659577954771652E-32, -1.836986451539392583E-16 ) ) ;
#181 = CARTESIAN_POINT ( 'NONE',  ( 1.326762908760390423E-13, -4.653657836759941941E-15, 38.00000000000000000 ) ) ;
#182 = CONICAL_SURFACE ( 'NONE', #126, 2.499999999999996891, 0.2617993877991428020 ) ;
#183 =( LENGTH_UNIT ( ) NAMED_UNIT ( * ) SI_UNIT ( .MILLI., .METRE. ) );
#184 = EDGE_LOOP ( 'NONE', ( #99 ) ) ;
#185 = EDGE_LOOP ( 'NONE', ( #240 ) ) ;
#186 = APPROVAL ( #175, 'UNSPECIFIED' ) ;
#187 = PERSON ( 'UNSPECIFIED', 'UNSPECIFIED', 'UNSPECIFIED', ('UNSPECIFIED'), ('UNSPECIFIED'), ('UNSPECIFIED') ) ;
#188 = ORGANIZATION ( 'UNSPECIFIED', 'UNSPECIFIED', '' ) ;
#189 = ORIENTED_EDGE ( 'NONE', *, *, #81, .F. ) ;
#190 = PERSON_AND_ORGANIZATION ( #187, #188 ) ;
#191 = FACE_OUTER_BOUND ( 'NONE', #54, .T. ) ;
#192 = APPROVAL_ROLE ( '' ) ;
#193 = DIRECTION ( 'NONE',  ( 0.0000000000000000000, 1.000000000000000000, 0.0000000000000000000 ) ) ;
#194 = FACE_OUTER_BOUND ( 'NONE', #19, .T. ) ;
#195 = ADVANCED_BREP_SHAPE_REPRESENTATION ( '57171', ( #90, #10, #27 ), #109 ) ;
#196 = ADVANCED_FACE ( 'NONE', ( #103, #146 ), #145, .T. ) ;
#197 = DIRECTION ( 'NONE',  ( 0.0000000000000000000, 0.0000000000000000000, 1.000000000000000000 ) ) ;
#198 = DIRECTION ( 'NONE',  ( -3.491481338843133355E-15, 1.219242935835426903E-16, -1.000000000000000000 ) ) ;
#199 = DIRECTION ( 'NONE',  ( 0.0000000000000000000, 1.000000000000000000, 0.0000000000000000000 ) ) ;
#200 = FACE_OUTER_BOUND ( 'NONE', #72, .T. ) ;
#201 = PRODUCT_RELATED_PRODUCT_CATEGORY ( 'detail', '', ( #102 ) ) ;
#202 = VERTEX_POINT ( 'NONE', #89 ) ;
#203 = EDGE_LOOP ( 'NONE', ( #150 ) ) ;
#204 = DATE_TIME_ROLE ( 'classification_date' ) ;
#205 = FACE_OUTER_BOUND ( 'NONE', #185, .T. ) ;
#206 = PERSON_AND_ORGANIZATION ( #187, #188 ) ;
#207 = DIRECTION ( 'NONE',  ( 4.275831445896958607E-31, 1.000000000000000000, 1.224646799147353207E-16 ) ) ;
#208 = EDGE_CURVE ( 'NONE', #128, #128, #67, .T. ) ;
#209 = DIRECTION ( 'NONE',  ( 1.000000000000000000, 0.0000000000000000000, 0.0000000000000000000 ) ) ;
#210 = DIRECTION ( 'NONE',  ( 3.491481338843133355E-15, -1.224646799147353207E-16, 1.000000000000000000 ) ) ;
#211 = CARTESIAN_POINT ( 'NONE',  ( 3.359555968535306615E-14, -1.499999999999996669, 9.622150721986848509 ) ) ;
#212 = VERTEX_POINT ( 'NONE', #13 ) ;
#213 = FACE_BOUND ( 'NONE', #130, .T. ) ;
#214 = AXIS2_PLACEMENT_3D ( 'NONE', #15, #68, #235 ) ;
#215 = UNCERTAINTY_MEASURE_WITH_UNIT (LENGTH_MEASURE( 1.000000000000000082E-05 ), #183, 'distance_accuracy_value', 'NONE');
#216 = CC_DESIGN_DATE_AND_TIME_ASSIGNMENT ( #133, #204, ( #73 ) ) ;
#217 = AXIS2_PLACEMENT_3D ( 'NONE', #82, #87, #47 ) ;
#218 = LOCAL_TIME ( 10, 45, 42.00000000000000000, #172 ) ;
#219 = EDGE_LOOP ( 'NONE', ( #148 ) ) ;
#220 = ORIENTED_EDGE ( 'NONE', *, *, #81, .T. ) ;
#221 = AXIS2_PLACEMENT_3D ( 'NONE', #174, #112, #58 ) ;
#222 = APPROVAL_STATUS ( 'not_yet_approved' ) ;
#223 = ORIENTED_EDGE ( 'NONE', *, *, #239, .T. ) ;
#224 = APPROVAL_DATE_TIME ( #153, #35 ) ;
#225 = PERSON_AND_ORGANIZATION_ROLE ( 'creator' ) ;
#226 = DIRECTION ( 'NONE',  ( -4.275831445896958607E-31, -1.000000000000000000, -1.224646799147353207E-16 ) ) ;
#227 = CLOSED_SHELL ( 'NONE', ( #196, #124, #122, #237, #74, #101 ) ) ;
#228 = CALENDAR_DATE ( 2021, 1, 11 ) ;
#229 = FACE_OUTER_BOUND ( 'NONE', #135, .T. ) ;
#230 = MECHANICAL_CONTEXT ( 'NONE', #129, 'mechanical' ) ;
#231 = CARTESIAN_POINT ( 'NONE',  ( 2.094888803305880013E-14, 1.124819836996387458E-32, 6.000000000000000000 ) ) ;
#232 = APPROVAL_PERSON_ORGANIZATION ( #6, #186, #170 ) ;
#233 = DIRECTION ( 'NONE',  ( 0.0000000000000000000, -1.000000000000000000, 0.0000000000000000000 ) ) ;
#234 = DIRECTION ( 'NONE',  ( 3.491481338843133355E-15, -1.224646799147353207E-16, 1.000000000000000000 ) ) ;
#235 = DIRECTION ( 'NONE',  ( 0.0000000000000000000, -1.000000000000000000, 0.0000000000000000000 ) ) ;
#236 = AXIS2_PLACEMENT_3D ( 'NONE', #43, #176, #193 ) ;
#237 = ADVANCED_FACE ( 'NONE', ( #213, #200 ), #182, .T. ) ;
#238 = EDGE_LOOP ( 'NONE', ( #154 ) ) ;
#239 = EDGE_CURVE ( 'NONE', #36, #36, #21, .T. ) ;
#240 = ORIENTED_EDGE ( 'NONE', *, *, #178, .F. ) ;
#241 = PERSON_AND_ORGANIZATION ( #187, #188 ) ;
#242 = CARTESIAN_POINT ( 'NONE',  ( 1.326762908760390423E-13, 8.998558695971062171E-33, 38.00000000000000000 ) ) ;
#243 = CC_DESIGN_PERSON_AND_ORGANIZATION_ASSIGNMENT ( #206, #138, ( #73 ) ) ;
ENDSEC;
END-ISO-10303-21;
