ISO-10303-21;
HEADER;
FILE_DESCRIPTION (( 'STEP AP203' ),
    '1' );
FILE_NAME ('57170.step',
    '2021-11-01T09:45:41',
    ( '' ),
    ( '' ),
    'SwSTEP 2.0',
    'SolidWorks 2019',
    '' );
FILE_SCHEMA (( 'CONFIG_CONTROL_DESIGN' ));
ENDSEC;

DATA;
#1 = EDGE_LOOP ( 'NONE', ( #22 ) ) ;
#2 = CC_DESIGN_DATE_AND_TIME_ASSIGNMENT ( #178, #126, ( #153 ) ) ;
#3 = FACE_OUTER_BOUND ( 'NONE', #40, .T. ) ;
#4 = DIRECTION ( 'NONE',  ( 0.0000000000000000000, 1.000000000000000000, 0.0000000000000000000 ) ) ;
#5 = CARTESIAN_POINT ( 'NONE',  ( 2.135198650927380534E-14, -7.456221640901358977E-16, 6.115451992176067719 ) ) ;
#6 = ADVANCED_FACE ( 'NONE', ( #212 ), #110, .F. ) ;
#7 = APPLICATION_CONTEXT ( 'configuration controlled 3d designs of mechanical parts and assemblies' ) ;
#8 = FACE_OUTER_BOUND ( 'NONE', #180, .T. ) ;
#9 = FACE_OUTER_BOUND ( 'NONE', #237, .T. ) ;
#10 = VERTEX_POINT ( 'NONE', #159 ) ;
#11 = DIRECTION ( 'NONE',  ( -3.491481338843133355E-15, 1.224646799147353207E-16, -1.000000000000000000 ) ) ;
#12 = APPROVAL_STATUS ( 'not_yet_approved' ) ;
#13 = EDGE_LOOP ( 'NONE', ( #84 ) ) ;
#14 = AXIS2_PLACEMENT_3D ( 'NONE', #58, #29, #157 ) ;
#15 = DATE_AND_TIME ( #145, #141 ) ;
#16 = DIRECTION ( 'NONE',  ( 0.0000000000000000000, 0.0000000000000000000, 1.000000000000000000 ) ) ;
#17 = EDGE_LOOP ( 'NONE', ( #39 ) ) ;
#18 = DIRECTION ( 'NONE',  ( 3.491481338843133355E-15, -1.219242935835426903E-16, 1.000000000000000000 ) ) ;
#19 = CIRCLE ( 'NONE', #50, 0.5749999999999998446 ) ;
#20 = APPROVAL ( #204, 'UNSPECIFIED' ) ;
#21 = DIRECTION ( 'NONE',  ( -3.491481338843133355E-15, 1.224646799147353207E-16, -1.000000000000000000 ) ) ;
#22 = ORIENTED_EDGE ( 'NONE', *, *, #69, .F. ) ;
#23 = PLANE ( 'NONE',  #219 ) ;
#24 = AXIS2_PLACEMENT_3D ( 'NONE', #152, #149, #225 ) ;
#25 = CARTESIAN_POINT ( 'NONE',  ( 1.018687894544877643E-14, -0.6431483474218602225, 2.917638090205028512 ) ) ;
#26 = CARTESIAN_POINT ( 'NONE',  ( 8.379555213223516897E-15, -0.5750000000000001776, 2.399999999999999467 ) ) ;
#27 = DIRECTION ( 'NONE',  ( 0.0000000000000000000, -1.000000000000000000, 0.0000000000000000000 ) ) ;
#28 = AXIS2_PLACEMENT_3D ( 'NONE', #132, #16, #124 ) ;
#29 = DIRECTION ( 'NONE',  ( 3.491481338843133355E-15, -1.219242935835426903E-16, 1.000000000000000000 ) ) ;
#30 = AXIS2_PLACEMENT_3D ( 'NONE', #121, #196, #79 ) ;
#31 = APPLICATION_PROTOCOL_DEFINITION ( 'international standard', 'config_control_design', 1994, #111 ) ;
#32 = ORIENTED_EDGE ( 'NONE', *, *, #213, .F. ) ;
#33 = PERSON_AND_ORGANIZATION ( #123, #44 ) ;
#34 = ORIENTED_EDGE ( 'NONE', *, *, #146, .F. ) ;
#35 = PRODUCT ( '57170', '57170', '', ( #167 ) ) ;
#36 = PERSON_AND_ORGANIZATION ( #123, #44 ) ;
#37 = EDGE_LOOP ( 'NONE', ( #71 ) ) ;
#38 = CLOSED_SHELL ( 'NONE', ( #195, #120, #6, #228, #181, #174 ) ) ;
#39 = ORIENTED_EDGE ( 'NONE', *, *, #63, .T. ) ;
#40 = EDGE_LOOP ( 'NONE', ( #54 ) ) ;
#41 = DIRECTION ( 'NONE',  ( 3.491481338843133355E-15, -1.219242935835426903E-16, 1.000000000000000000 ) ) ;
#42 = DIRECTION ( 'NONE',  ( 0.0000000000000000000, -1.000000000000000000, 0.0000000000000000000 ) ) ;
#43 = CIRCLE ( 'NONE', #56, 0.6431483474218598895 ) ;
#44 = ORGANIZATION ( 'UNSPECIFIED', 'UNSPECIFIED', '' ) ;
#45 = FACE_OUTER_BOUND ( 'NONE', #166, .T. ) ;
#46 = CARTESIAN_POINT ( 'NONE',  ( -2.413686355104388403E-30, -0.5749999999999999556, -6.913072478010548495E-16 ) ) ;
#47 = DIRECTION ( 'NONE',  ( -4.275831445896958607E-31, -1.000000000000000000, -1.224646799147353207E-16 ) ) ;
#48 = CIRCLE ( 'NONE', #61, 1.499999999999997558 ) ;
#49 = PERSON_AND_ORGANIZATION ( #123, #44 ) ;
#50 = AXIS2_PLACEMENT_3D ( 'NONE', #137, #103, #42 ) ;
#51 = PERSON_AND_ORGANIZATION ( #123, #44 ) ;
#52 = APPLICATION_PROTOCOL_DEFINITION ( 'international standard', 'config_control_design', 1994, #7 ) ;
#53 = CC_DESIGN_PERSON_AND_ORGANIZATION_ASSIGNMENT ( #222, #86, ( #229 ) ) ;
#54 = ORIENTED_EDGE ( 'NONE', *, *, #227, .T. ) ;
#55 = DIRECTION ( 'NONE',  ( -3.491481338843133355E-15, 1.224646799147353207E-16, -1.000000000000000000 ) ) ;
#56 = AXIS2_PLACEMENT_3D ( 'NONE', #186, #41, #90 ) ;
#57 = CC_DESIGN_APPROVAL ( #73, ( #188 ) ) ;
#58 = CARTESIAN_POINT ( 'NONE',  ( 8.379555213223516897E-15, -4.336808689942017736E-16, 2.399999999999999467 ) ) ;
#59 = PLANE ( 'NONE',  #30 ) ;
#60 = DIRECTION ( 'NONE',  ( -4.275831445896958607E-31, -1.000000000000000000, -1.224646799147353207E-16 ) ) ;
#61 = AXIS2_PLACEMENT_3D ( 'NONE', #170, #93, #4 ) ;
#62 = CARTESIAN_POINT ( 'NONE',  ( 8.379555213223516897E-15, -2.926183046005023679E-16, 2.399999999999999467 ) ) ;
#63 = EDGE_CURVE ( 'NONE', #173, #173, #43, .T. ) ;
#64 = DIRECTION ( 'NONE',  ( -4.256963957985710640E-31, -1.000000000000000000, -1.219242935835427396E-16 ) ) ;
#65 = COORDINATED_UNIVERSAL_TIME_OFFSET ( 1, 0, .AHEAD. ) ;
#66 = DATE_AND_TIME ( #200, #136 ) ;
#67 = APPROVAL_DATE_TIME ( #66, #20 ) ;
#68 = EDGE_LOOP ( 'NONE', ( #113 ) ) ;
#69 = EDGE_CURVE ( 'NONE', #139, #139, #172, .T. ) ;
#70 = EDGE_LOOP ( 'NONE', ( #148 ) ) ;
#71 = ORIENTED_EDGE ( 'NONE', *, *, #108, .F. ) ;
#72 = FACE_OUTER_BOUND ( 'NONE', #135, .T. ) ;
#73 = APPROVAL ( #221, 'UNSPECIFIED' ) ;
#74 = FACE_OUTER_BOUND ( 'NONE', #37, .T. ) ;
#75 = MANIFOLD_SOLID_BREP ( 'Corps-Déplacer/Copier1[2]', #133 ) ;
#76 = DIRECTION ( 'NONE',  ( -3.491481338843133355E-15, 1.219242935835426903E-16, -1.000000000000000000 ) ) ;
#77 = CC_DESIGN_APPROVAL ( #20, ( #153 ) ) ;
#78 = FACE_OUTER_BOUND ( 'NONE', #201, .T. ) ;
#79 = DIRECTION ( 'NONE',  ( -4.275831445896958607E-31, -1.000000000000000000, -1.224646799147353207E-16 ) ) ;
#80 = FACE_BOUND ( 'NONE', #17, .T. ) ;
#81 = VERTEX_POINT ( 'NONE', #26 ) ;
#82 = MANIFOLD_SOLID_BREP ( 'Corps-Déplacer/Copier1[1]', #38 ) ;
#83 = SECURITY_CLASSIFICATION_LEVEL ( 'unclassified' ) ;
#84 = ORIENTED_EDGE ( 'NONE', *, *, #69, .T. ) ;
#85 = ADVANCED_FACE ( 'NONE', ( #3, #72 ), #150, .T. ) ;
#86 = PERSON_AND_ORGANIZATION_ROLE ( 'creator' ) ;
#87 = DATE_TIME_ROLE ( 'classification_date' ) ;
#88 = APPROVAL_DATE_TIME ( #243, #73 ) ;
#89 = CALENDAR_DATE ( 2021, 1, 11 ) ;
#90 = DIRECTION ( 'NONE',  ( 0.0000000000000000000, -1.000000000000000000, 0.0000000000000000000 ) ) ;
#91 = AXIS2_PLACEMENT_3D ( 'NONE', #5, #76, #27 ) ;
#92 = DIRECTION ( 'NONE',  ( -4.256963957985708889E-31, -1.000000000000000000, -1.219242935835426903E-16 ) ) ;
#93 = DIRECTION ( 'NONE',  ( -3.491481338843133355E-15, 1.224646799147353207E-16, -1.000000000000000000 ) ) ;
#94 = CC_DESIGN_PERSON_AND_ORGANIZATION_ASSIGNMENT ( #162, #107, ( #35 ) ) ;
#95 = CARTESIAN_POINT ( 'NONE',  ( -6.413803915257455362E-31, 2.249659577954771652E-32, -1.836986451539392583E-16 ) ) ;
#96 = CC_DESIGN_SECURITY_CLASSIFICATION ( #188, ( #229 ) ) ;
#97 = CONICAL_SURFACE ( 'NONE', #238, 2.499999999999996447, 0.2617993877991430240 ) ;
#98 = PLANE ( 'NONE',  #208 ) ;
#99 = FACE_OUTER_BOUND ( 'NONE', #70, .T. ) ;
#100 = CC_DESIGN_PERSON_AND_ORGANIZATION_ASSIGNMENT ( #36, #220, ( #153 ) ) ;
#101 = APPROVAL_PERSON_ORGANIZATION ( #165, #73, #147 ) ;
#102 = DESIGN_CONTEXT ( 'detailed design', #7, 'design' ) ;
#103 = DIRECTION ( 'NONE',  ( 3.491481338843133355E-15, -1.219242935835426903E-16, 1.000000000000000000 ) ) ;
#104 = APPROVAL_ROLE ( '' ) ;
#105 = ORIENTED_EDGE ( 'NONE', *, *, #183, .T. ) ;
#106 = COORDINATED_UNIVERSAL_TIME_OFFSET ( 1, 0, .AHEAD. ) ;
#107 = PERSON_AND_ORGANIZATION_ROLE ( 'design_owner' ) ;
#108 = EDGE_CURVE ( 'NONE', #176, #176, #48, .T. ) ;
#109 =( NAMED_UNIT ( * ) PLANE_ANGLE_UNIT ( ) SI_UNIT ( $, .RADIAN. ) );
#110 = PLANE ( 'NONE',  #24 ) ;
#111 = APPLICATION_CONTEXT ( 'configuration controlled 3d designs of mechanical parts and assemblies' ) ;
#112 = COORDINATED_UNIVERSAL_TIME_OFFSET ( 1, 0, .AHEAD. ) ;
#113 = ORIENTED_EDGE ( 'NONE', *, *, #227, .F. ) ;
#114 = APPROVAL_PERSON_ORGANIZATION ( #49, #144, #104 ) ;
#115 = FACE_BOUND ( 'NONE', #13, .T. ) ;
#116 = CARTESIAN_POINT ( 'NONE',  ( 0.0000000000000000000, 0.0000000000000000000, 0.0000000000000000000 ) ) ;
#117 = DIRECTION ( 'NONE',  ( 3.491481338843133355E-15, -1.219242935835426903E-16, 1.000000000000000000 ) ) ;
#118 = TOROIDAL_SURFACE ( 'NONE', #14, 2.575000000000000622, 2.000000000000000444 ) ;
#119 = VERTEX_POINT ( 'NONE', #194 ) ;
#120 = ADVANCED_FACE ( 'NONE', ( #74, #115 ), #140, .T. ) ;
#121 = CARTESIAN_POINT ( 'NONE',  ( 8.379555213223518475E-15, 1.124819836996388006E-32, 2.399999999999999911 ) ) ;
#122 = AXIS2_PLACEMENT_3D ( 'NONE', #214, #191, #64 ) ;
#123 = PERSON ( 'UNSPECIFIED', 'UNSPECIFIED', 'UNSPECIFIED', ('UNSPECIFIED'), ('UNSPECIFIED'), ('UNSPECIFIED') ) ;
#124 = DIRECTION ( 'NONE',  ( 1.000000000000000000, 0.0000000000000000000, 0.0000000000000000000 ) ) ;
#125 = CC_DESIGN_PERSON_AND_ORGANIZATION_ASSIGNMENT ( #33, #164, ( #229 ) ) ;
#126 = DATE_TIME_ROLE ( 'creation_date' ) ;
#127 = DATE_AND_TIME ( #202, #211 ) ;
#128 = EDGE_LOOP ( 'NONE', ( #224 ) ) ;
#129 = CIRCLE ( 'NONE', #197, 0.5749999999999998446 ) ;
#130 = LOCAL_TIME ( 10, 45, 41.00000000000000000, #182 ) ;
#131 = CALENDAR_DATE ( 2021, 1, 11 ) ;
#132 = CARTESIAN_POINT ( 'NONE',  ( 0.0000000000000000000, 0.0000000000000000000, 0.0000000000000000000 ) ) ;
#133 = CLOSED_SHELL ( 'NONE', ( #177, #85, #240 ) ) ;
#134 = DIRECTION ( 'NONE',  ( 0.0000000000000000000, 1.000000000000000000, 0.0000000000000000000 ) ) ;
#135 = EDGE_LOOP ( 'NONE', ( #32 ) ) ;
#136 = LOCAL_TIME ( 10, 45, 41.00000000000000000, #106 ) ;
#137 = CARTESIAN_POINT ( 'NONE',  ( 8.379555213223516897E-15, -2.926183046005023679E-16, 2.399999999999999467 ) ) ;
#138 = DIRECTION ( 'NONE',  ( 0.0000000000000000000, -1.000000000000000000, 0.0000000000000000000 ) ) ;
#139 = VERTEX_POINT ( 'NONE', #217 ) ;
#140 = CONICAL_SURFACE ( 'NONE', #192, 1.199999999999997957, 0.7853981633974450594 ) ;
#141 = LOCAL_TIME ( 10, 45, 41.00000000000000000, #65 ) ;
#142 = FACE_OUTER_BOUND ( 'NONE', #68, .T. ) ;
#143 =( LENGTH_UNIT ( ) NAMED_UNIT ( * ) SI_UNIT ( .MILLI., .METRE. ) );
#144 = APPROVAL ( #12, 'UNSPECIFIED' ) ;
#145 = CALENDAR_DATE ( 2021, 1, 11 ) ;
#146 = EDGE_CURVE ( 'NONE', #119, #119, #226, .T. ) ;
#147 = APPROVAL_ROLE ( '' ) ;
#148 = ORIENTED_EDGE ( 'NONE', *, *, #183, .F. ) ;
#149 = DIRECTION ( 'NONE',  ( -3.491481338843133355E-15, 1.224646799147353207E-16, -1.000000000000000000 ) ) ;
#150 = CYLINDRICAL_SURFACE ( 'NONE', #163, 0.5749999999999999556 ) ;
#151 = SHAPE_DEFINITION_REPRESENTATION ( #206, #223 ) ;
#152 = CARTESIAN_POINT ( 'NONE',  ( 1.326762908760390423E-13, 8.998558695971062171E-33, 38.00000000000000000 ) ) ;
#153 = PRODUCT_DEFINITION ( 'UNKNOWN', '', #229, #102 ) ;
#154 = ORIENTED_EDGE ( 'NONE', *, *, #108, .T. ) ;
#155 = CARTESIAN_POINT ( 'NONE',  ( 8.379555213223518475E-15, 1.124819836996388006E-32, 2.399999999999999911 ) ) ;
#156 = AXIS2_PLACEMENT_3D ( 'NONE', #169, #55, #134 ) ;
#157 = DIRECTION ( 'NONE',  ( -4.315008317337095747E-31, -1.000000000000000000, -1.219242935835426903E-16 ) ) ;
#158 = FACE_OUTER_BOUND ( 'NONE', #209, .T. ) ;
#159 = CARTESIAN_POINT ( 'NONE',  ( 8.379555213223516897E-15, -0.5750000000000001776, 2.399999999999999467 ) ) ;
#160 = AXIS2_PLACEMENT_3D ( 'NONE', #116, #11, #215 ) ;
#161 = UNCERTAINTY_MEASURE_WITH_UNIT (LENGTH_MEASURE( 1.000000000000000082E-05 ), #143, 'distance_accuracy_value', 'NONE');
#162 = PERSON_AND_ORGANIZATION ( #123, #44 ) ;
#163 = AXIS2_PLACEMENT_3D ( 'NONE', #187, #18, #92 ) ;
#164 = PERSON_AND_ORGANIZATION_ROLE ( 'design_supplier' ) ;
#165 = PERSON_AND_ORGANIZATION ( #123, #44 ) ;
#166 = EDGE_LOOP ( 'NONE', ( #210 ) ) ;
#167 = MECHANICAL_CONTEXT ( 'NONE', #111, 'mechanical' ) ;
#168 = CC_DESIGN_DATE_AND_TIME_ASSIGNMENT ( #15, #87, ( #188 ) ) ;
#169 = CARTESIAN_POINT ( 'NONE',  ( 1.326762908760390423E-13, -4.653657836759941941E-15, 38.00000000000000000 ) ) ;
#170 = CARTESIAN_POINT ( 'NONE',  ( 1.316288464743861212E-13, -4.616918432785521081E-15, 37.69999999999999574 ) ) ;
#171 = DIRECTION ( 'NONE',  ( 0.0000000000000000000, 1.000000000000000000, 0.0000000000000000000 ) ) ;
#172 = CIRCLE ( 'NONE', #156, 1.199999999999997957 ) ;
#173 = VERTEX_POINT ( 'NONE', #25 ) ;
#174 = ADVANCED_FACE ( 'NONE', ( #99 ), #98, .F. ) ;
#175 = CARTESIAN_POINT ( 'NONE',  ( 3.438237225951533629E-14, -1.200649822420873433E-15, 9.847502799745045721 ) ) ;
#176 = VERTEX_POINT ( 'NONE', #231 ) ;
#177 = ADVANCED_FACE ( 'NONE', ( #233 ), #59, .T. ) ;
#178 = DATE_AND_TIME ( #131, #130 ) ;
#179 = COORDINATED_UNIVERSAL_TIME_OFFSET ( 1, 0, .AHEAD. ) ;
#180 = EDGE_LOOP ( 'NONE', ( #34 ) ) ;
#181 = ADVANCED_FACE ( 'NONE', ( #78, #9 ), #118, .F. ) ;
#182 = COORDINATED_UNIVERSAL_TIME_OFFSET ( 1, 0, .AHEAD. ) ;
#183 = EDGE_CURVE ( 'NONE', #10, #10, #129, .T. ) ;
#184 = APPROVAL_PERSON_ORGANIZATION ( #205, #20, #241 ) ;
#185 = CIRCLE ( 'NONE', #122, 0.5749999999999999556 ) ;
#186 = CARTESIAN_POINT ( 'NONE',  ( 1.018687894544877643E-14, -3.557309630806847409E-16, 2.917638090205028512 ) ) ;
#187 = CARTESIAN_POINT ( 'NONE',  ( 0.0000000000000000000, 0.0000000000000000000, 0.0000000000000000000 ) ) ;
#188 = SECURITY_CLASSIFICATION ( '', '', #83 ) ;
#189 =( GEOMETRIC_REPRESENTATION_CONTEXT ( 3 ) GLOBAL_UNCERTAINTY_ASSIGNED_CONTEXT ( ( #161 ) ) GLOBAL_UNIT_ASSIGNED_CONTEXT ( ( #143, #109, #207 ) ) REPRESENTATION_CONTEXT ( 'NONE', 'WORKASPACE' ) );
#190 = CARTESIAN_POINT ( 'NONE',  ( 1.326762908760390423E-13, -4.653657836759941941E-15, 38.00000000000000000 ) ) ;
#191 = DIRECTION ( 'NONE',  ( 3.491481338843133355E-15, -1.219242935835426903E-16, 1.000000000000000000 ) ) ;
#192 = AXIS2_PLACEMENT_3D ( 'NONE', #190, #21, #171 ) ;
#193 = DIRECTION ( 'NONE',  ( 0.0000000000000000000, -1.000000000000000000, 0.0000000000000000000 ) ) ;
#194 = CARTESIAN_POINT ( 'NONE',  ( 2.135198650927380534E-14, -1.499999999999996225, 6.115451992176067719 ) ) ;
#195 = ADVANCED_FACE ( 'NONE', ( #158, #8 ), #234, .T. ) ;
#196 = DIRECTION ( 'NONE',  ( 3.491481338843133355E-15, -1.224646799147353207E-16, 1.000000000000000000 ) ) ;
#197 = AXIS2_PLACEMENT_3D ( 'NONE', #62, #230, #138 ) ;
#198 = DIRECTION ( 'NONE',  ( 3.491481338843133355E-15, -1.224646799147353207E-16, 1.000000000000000000 ) ) ;
#199 = LOCAL_TIME ( 10, 45, 41.00000000000000000, #112 ) ;
#200 = CALENDAR_DATE ( 2021, 1, 11 ) ;
#201 = EDGE_LOOP ( 'NONE', ( #105 ) ) ;
#202 = CALENDAR_DATE ( 2021, 1, 11 ) ;
#203 = PRODUCT_RELATED_PRODUCT_CATEGORY ( 'detail', '', ( #35 ) ) ;
#204 = APPROVAL_STATUS ( 'not_yet_approved' ) ;
#205 = PERSON_AND_ORGANIZATION ( #123, #44 ) ;
#206 = PRODUCT_DEFINITION_SHAPE ( 'NONE', 'NONE',  #153 ) ;
#207 =( NAMED_UNIT ( * ) SI_UNIT ( $, .STERADIAN. ) SOLID_ANGLE_UNIT ( ) );
#208 = AXIS2_PLACEMENT_3D ( 'NONE', #155, #198, #47 ) ;
#209 = EDGE_LOOP ( 'NONE', ( #154 ) ) ;
#210 = ORIENTED_EDGE ( 'NONE', *, *, #146, .T. ) ;
#211 = LOCAL_TIME ( 10, 45, 41.00000000000000000, #179 ) ;
#212 = FACE_OUTER_BOUND ( 'NONE', #1, .T. ) ;
#213 = EDGE_CURVE ( 'NONE', #81, #81, #19, .T. ) ;
#214 = CARTESIAN_POINT ( 'NONE',  ( -2.168910927520210276E-30, 7.573946615196530336E-32, -6.212007789905177483E-16 ) ) ;
#215 = DIRECTION ( 'NONE',  ( 4.275831445896958607E-31, 1.000000000000000000, 1.224646799147353207E-16 ) ) ;
#216 = CC_DESIGN_APPROVAL ( #144, ( #229 ) ) ;
#217 = CARTESIAN_POINT ( 'NONE',  ( 1.326762908760390423E-13, 1.199999999999993294, 38.00000000000000000 ) ) ;
#218 = VERTEX_POINT ( 'NONE', #46 ) ;
#219 = AXIS2_PLACEMENT_3D ( 'NONE', #95, #232, #60 ) ;
#220 = PERSON_AND_ORGANIZATION_ROLE ( 'creator' ) ;
#221 = APPROVAL_STATUS ( 'not_yet_approved' ) ;
#222 = PERSON_AND_ORGANIZATION ( #123, #44 ) ;
#223 = ADVANCED_BREP_SHAPE_REPRESENTATION ( '57170', ( #82, #75, #28 ), #189 ) ;
#224 = ORIENTED_EDGE ( 'NONE', *, *, #213, .T. ) ;
#225 = DIRECTION ( 'NONE',  ( 4.275831445896958607E-31, 1.000000000000000000, 1.224646799147353207E-16 ) ) ;
#226 = CIRCLE ( 'NONE', #91, 1.499999999999995559 ) ;
#227 = EDGE_CURVE ( 'NONE', #218, #218, #185, .T. ) ;
#228 = ADVANCED_FACE ( 'NONE', ( #80, #45 ), #97, .T. ) ;
#229 = PRODUCT_DEFINITION_FORMATION_WITH_SPECIFIED_SOURCE ( 'ANY', '', #35, .NOT_KNOWN. ) ;
#230 = DIRECTION ( 'NONE',  ( 3.491481338843133355E-15, -1.219242935835426903E-16, 1.000000000000000000 ) ) ;
#231 = CARTESIAN_POINT ( 'NONE',  ( 1.316288464743861212E-13, 1.499999999999993117, 37.69999999999999574 ) ) ;
#232 = DIRECTION ( 'NONE',  ( 3.491481338843133355E-15, -1.224646799147353207E-16, 1.000000000000000000 ) ) ;
#233 = FACE_OUTER_BOUND ( 'NONE', #128, .T. ) ;
#234 = CYLINDRICAL_SURFACE ( 'NONE', #160, 1.499999999999995559 ) ;
#235 = CC_DESIGN_PERSON_AND_ORGANIZATION_ASSIGNMENT ( #51, #239, ( #188 ) ) ;
#236 = APPROVAL_DATE_TIME ( #127, #144 ) ;
#237 = EDGE_LOOP ( 'NONE', ( #242 ) ) ;
#238 = AXIS2_PLACEMENT_3D ( 'NONE', #175, #117, #193 ) ;
#239 = PERSON_AND_ORGANIZATION_ROLE ( 'classification_officer' ) ;
#240 = ADVANCED_FACE ( 'NONE', ( #142 ), #23, .F. ) ;
#241 = APPROVAL_ROLE ( '' ) ;
#242 = ORIENTED_EDGE ( 'NONE', *, *, #63, .F. ) ;
#243 = DATE_AND_TIME ( #89, #199 ) ;
ENDSEC;
END-ISO-10303-21;
