ISO-10303-21;
HEADER;
FILE_DESCRIPTION (( 'STEP AP203' ),
    '1' );
FILE_NAME ('57169.step',
    '2021-11-01T09:45:41',
    ( '' ),
    ( '' ),
    'SwSTEP 2.0',
    'SolidWorks 2019',
    '' );
FILE_SCHEMA (( 'CONFIG_CONTROL_DESIGN' ));
ENDSEC;

DATA;
#1 = CC_DESIGN_PERSON_AND_ORGANIZATION_ASSIGNMENT ( #40, #83, ( #224 ) ) ;
#2 = FACE_OUTER_BOUND ( 'NONE', #69, .T. ) ;
#3 = MANIFOLD_SOLID_BREP ( 'Corps-Déplacer/Copier1[2]', #20 ) ;
#4 = FACE_OUTER_BOUND ( 'NONE', #48, .T. ) ;
#5 = CARTESIAN_POINT ( 'NONE',  ( -2.158268517625246238E-30, 7.536782781781915844E-32, -6.181526716509291959E-16 ) ) ;
#6 = APPROVAL_DATE_TIME ( #58, #243 ) ;
#7 = CARTESIAN_POINT ( 'NONE',  ( 1.316288464743861212E-13, 1.499999999999993117, 37.69999999999999574 ) ) ;
#8 = CARTESIAN_POINT ( 'NONE',  ( 1.326762908760390423E-13, 1.199999999999993294, 38.00000000000000000 ) ) ;
#9 = COORDINATED_UNIVERSAL_TIME_OFFSET ( 1, 0, .AHEAD. ) ;
#10 = CALENDAR_DATE ( 2021, 1, 11 ) ;
#11 = APPROVAL_DATE_TIME ( #162, #139 ) ;
#12 = EDGE_LOOP ( 'NONE', ( #109 ) ) ;
#13 = EDGE_LOOP ( 'NONE', ( #239 ) ) ;
#14 = CIRCLE ( 'NONE', #147, 0.6181483474218605334 ) ;
#15 = CC_DESIGN_APPROVAL ( #139, ( #242 ) ) ;
#16 = VERTEX_POINT ( 'NONE', #164 ) ;
#17 = DIRECTION ( 'NONE',  ( -4.275831445896958607E-31, -1.000000000000000000, -1.224646799147353207E-16 ) ) ;
#18 = PERSON_AND_ORGANIZATION ( #64, #196 ) ;
#19 = CARTESIAN_POINT ( 'NONE',  ( -6.413803915257455362E-31, 2.249659577954771652E-32, -1.836986451539392583E-16 ) ) ;
#20 = CLOSED_SHELL ( 'NONE', ( #35, #104, #87 ) ) ;
#21 = DIRECTION ( 'NONE',  ( 4.275831445896958607E-31, 1.000000000000000000, 1.224646799147353207E-16 ) ) ;
#22 = PERSON_AND_ORGANIZATION ( #64, #196 ) ;
#23 = CARTESIAN_POINT ( 'NONE',  ( 7.681258945454894959E-15, 1.124819836996388006E-32, 2.200000000000000178 ) ) ;
#24 = CALENDAR_DATE ( 2021, 1, 11 ) ;
#25 = VERTEX_POINT ( 'NONE', #7 ) ;
#26 = TOROIDAL_SURFACE ( 'NONE', #54, 2.550000000000000711, 2.000000000000000000 ) ;
#27 = DIRECTION ( 'NONE',  ( -3.491481338843133355E-15, 1.224646799147353207E-16, -1.000000000000000000 ) ) ;
#28 = AXIS2_PLACEMENT_3D ( 'NONE', #170, #228, #59 ) ;
#29 = EDGE_CURVE ( 'NONE', #25, #25, #145, .T. ) ;
#30 = EDGE_LOOP ( 'NONE', ( #119 ) ) ;
#31 = APPROVAL_STATUS ( 'not_yet_approved' ) ;
#32 = EDGE_LOOP ( 'NONE', ( #120 ) ) ;
#33 = AXIS2_PLACEMENT_3D ( 'NONE', #5, #217, #37 ) ;
#34 = CIRCLE ( 'NONE', #201, 1.199999999999997957 ) ;
#35 = ADVANCED_FACE ( 'NONE', ( #96 ), #78, .T. ) ;
#36 = DIRECTION ( 'NONE',  ( 3.491481338843133355E-15, -1.219242935835426903E-16, 1.000000000000000000 ) ) ;
#37 = DIRECTION ( 'NONE',  ( -4.256963957985708013E-31, -1.000000000000000000, -1.219242935835427642E-16 ) ) ;
#38 = EDGE_CURVE ( 'NONE', #86, #86, #105, .T. ) ;
#39 = DIRECTION ( 'NONE',  ( 0.0000000000000000000, -1.000000000000000000, 0.0000000000000000000 ) ) ;
#40 = PERSON_AND_ORGANIZATION ( #64, #196 ) ;
#41 = FACE_OUTER_BOUND ( 'NONE', #32, .T. ) ;
#42 = DIRECTION ( 'NONE',  ( 3.491481338843133355E-15, -1.224646799147353207E-16, 1.000000000000000000 ) ) ;
#43 = AXIS2_PLACEMENT_3D ( 'NONE', #149, #62, #39 ) ;
#44 = ADVANCED_FACE ( 'NONE', ( #127, #77 ), #190, .T. ) ;
#45 = ORIENTED_EDGE ( 'NONE', *, *, #72, .F. ) ;
#46 = DESIGN_CONTEXT ( 'detailed design', #238, 'design' ) ;
#47 = APPROVAL_ROLE ( '' ) ;
#48 = EDGE_LOOP ( 'NONE', ( #71 ) ) ;
#49 = MECHANICAL_CONTEXT ( 'NONE', #136, 'mechanical' ) ;
#50 = ADVANCED_FACE ( 'NONE', ( #195 ), #215, .F. ) ;
#51 = CIRCLE ( 'NONE', #193, 0.5499999999999999334 ) ;
#52 = APPROVAL_STATUS ( 'not_yet_approved' ) ;
#53 = CARTESIAN_POINT ( 'NONE',  ( 0.0000000000000000000, 0.0000000000000000000, 0.0000000000000000000 ) ) ;
#54 = AXIS2_PLACEMENT_3D ( 'NONE', #103, #231, #199 ) ;
#55 = CC_DESIGN_APPROVAL ( #243, ( #110 ) ) ;
#56 = APPROVAL ( #157, 'UNSPECIFIED' ) ;
#57 = DIRECTION ( 'NONE',  ( -3.491481338843133355E-15, 1.224646799147353207E-16, -1.000000000000000000 ) ) ;
#58 = DATE_AND_TIME ( #10, #166 ) ;
#59 = DIRECTION ( 'NONE',  ( 0.0000000000000000000, -1.000000000000000000, 0.0000000000000000000 ) ) ;
#60 = APPROVAL_DATE_TIME ( #148, #56 ) ;
#61 = DIRECTION ( 'NONE',  ( 0.0000000000000000000, -1.000000000000000000, 0.0000000000000000000 ) ) ;
#62 = DIRECTION ( 'NONE',  ( -3.491481338843133355E-15, 1.219242935835426903E-16, -1.000000000000000000 ) ) ;
#63 = CARTESIAN_POINT ( 'NONE',  ( 0.0000000000000000000, 0.0000000000000000000, 0.0000000000000000000 ) ) ;
#64 = PERSON ( 'UNSPECIFIED', 'UNSPECIFIED', 'UNSPECIFIED', ('UNSPECIFIED'), ('UNSPECIFIED'), ('UNSPECIFIED') ) ;
#65 = PLANE ( 'NONE',  #138 ) ;
#66 = CARTESIAN_POINT ( 'NONE',  ( 9.488582677680149762E-15, -0.6181483474218608665, 2.717638090205028778 ) ) ;
#67 = ADVANCED_FACE ( 'NONE', ( #82, #2 ), #26, .F. ) ;
#68 = AXIS2_PLACEMENT_3D ( 'NONE', #178, #150, #131 ) ;
#69 = EDGE_LOOP ( 'NONE', ( #186 ) ) ;
#70 = DATE_AND_TIME ( #208, #236 ) ;
#71 = ORIENTED_EDGE ( 'NONE', *, *, #94, .F. ) ;
#72 = EDGE_CURVE ( 'NONE', #181, #181, #34, .T. ) ;
#73 = AXIS2_PLACEMENT_3D ( 'NONE', #95, #168, #197 ) ;
#74 = APPROVAL_ROLE ( '' ) ;
#75 = EDGE_LOOP ( 'NONE', ( #163 ) ) ;
#76 = CC_DESIGN_PERSON_AND_ORGANIZATION_ASSIGNMENT ( #204, #240, ( #242 ) ) ;
#77 = FACE_OUTER_BOUND ( 'NONE', #237, .T. ) ;
#78 = PLANE ( 'NONE',  #165 ) ;
#79 = LOCAL_TIME ( 10, 45, 41.00000000000000000, #9 ) ;
#80 = DIRECTION ( 'NONE',  ( -4.275831445896958607E-31, -1.000000000000000000, -1.224646799147353207E-16 ) ) ;
#81 = PERSON_AND_ORGANIZATION_ROLE ( 'creator' ) ;
#82 = FACE_OUTER_BOUND ( 'NONE', #12, .T. ) ;
#83 = PERSON_AND_ORGANIZATION_ROLE ( 'classification_officer' ) ;
#84 = PLANE ( 'NONE',  #98 ) ;
#85 = AXIS2_PLACEMENT_3D ( 'NONE', #53, #241, #142 ) ;
#86 = VERTEX_POINT ( 'NONE', #106 ) ;
#87 = ADVANCED_FACE ( 'NONE', ( #4 ), #65, .F. ) ;
#88 = VERTEX_POINT ( 'NONE', #158 ) ;
#89 = EDGE_LOOP ( 'NONE', ( #159 ) ) ;
#90 = APPROVAL_PERSON_ORGANIZATION ( #221, #243, #47 ) ;
#91 = PERSON_AND_ORGANIZATION ( #64, #196 ) ;
#92 = CARTESIAN_POINT ( 'NONE',  ( 2.097944988526121370E-14, -1.499999999999996225, 6.008753262365292613 ) ) ;
#93 = APPLICATION_PROTOCOL_DEFINITION ( 'international standard', 'config_control_design', 1994, #136 ) ;
#94 = EDGE_CURVE ( 'NONE', #88, #88, #156, .T. ) ;
#95 = CARTESIAN_POINT ( 'NONE',  ( 0.0000000000000000000, 0.0000000000000000000, 0.0000000000000000000 ) ) ;
#96 = FACE_OUTER_BOUND ( 'NONE', #188, .T. ) ;
#97 = CARTESIAN_POINT ( 'NONE',  ( 1.326762908760390423E-13, 8.998558695971062171E-33, 38.00000000000000000 ) ) ;
#98 = AXIS2_PLACEMENT_3D ( 'NONE', #23, #42, #176 ) ;
#99 = ADVANCED_FACE ( 'NONE', ( #154 ), #84, .F. ) ;
#100 = DIRECTION ( 'NONE',  ( -4.256963957985708889E-31, -1.000000000000000000, -1.219242935835426903E-16 ) ) ;
#101 = FACE_OUTER_BOUND ( 'NONE', #75, .T. ) ;
#102 = DATE_AND_TIME ( #24, #211 ) ;
#103 = CARTESIAN_POINT ( 'NONE',  ( 7.681258945454893382E-15, -4.336808689942017736E-16, 2.199999999999999734 ) ) ;
#104 = ADVANCED_FACE ( 'NONE', ( #233, #101 ), #114, .T. ) ;
#105 = CIRCLE ( 'NONE', #28, 0.5499999999999999334 ) ;
#106 = CARTESIAN_POINT ( 'NONE',  ( 7.681258945454893382E-15, -0.5500000000000001554, 2.199999999999999734 ) ) ;
#107 = ORIENTED_EDGE ( 'NONE', *, *, #171, .F. ) ;
#108 = CALENDAR_DATE ( 2021, 1, 11 ) ;
#109 = ORIENTED_EDGE ( 'NONE', *, *, #38, .T. ) ;
#110 = PRODUCT_DEFINITION_FORMATION_WITH_SPECIFIED_SOURCE ( 'ANY', '', #198, .NOT_KNOWN. ) ;
#111 = DIRECTION ( 'NONE',  ( 3.491481338843133355E-15, -1.224646799147353207E-16, 1.000000000000000000 ) ) ;
#112 = CC_DESIGN_DATE_AND_TIME_ASSIGNMENT ( #102, #126, ( #224 ) ) ;
#113 = VERTEX_POINT ( 'NONE', #92 ) ;
#114 = CYLINDRICAL_SURFACE ( 'NONE', #227, 0.5500000000000000444 ) ;
#115 = DIRECTION ( 'NONE',  ( 3.491481338843133355E-15, -1.219242935835426903E-16, 1.000000000000000000 ) ) ;
#116 = CARTESIAN_POINT ( 'NONE',  ( 3.400983563550275097E-14, -1.187640655162433548E-15, 9.740804069934270615 ) ) ;
#117 = EDGE_CURVE ( 'NONE', #235, #235, #14, .T. ) ;
#118 = FACE_BOUND ( 'NONE', #89, .T. ) ;
#119 = ORIENTED_EDGE ( 'NONE', *, *, #38, .F. ) ;
#120 = ORIENTED_EDGE ( 'NONE', *, *, #171, .T. ) ;
#121 = CIRCLE ( 'NONE', #43, 1.499999999999995559 ) ;
#122 = ADVANCED_BREP_SHAPE_REPRESENTATION ( '57169', ( #169, #3, #85 ), #153 ) ;
#123 =( NAMED_UNIT ( * ) PLANE_ANGLE_UNIT ( ) SI_UNIT ( $, .RADIAN. ) );
#124 = CLOSED_SHELL ( 'NONE', ( #44, #210, #50, #230, #67, #99 ) ) ;
#125 = AXIS2_PLACEMENT_3D ( 'NONE', #116, #200, #202 ) ;
#126 = DATE_TIME_ROLE ( 'classification_date' ) ;
#127 = FACE_OUTER_BOUND ( 'NONE', #203, .T. ) ;
#128 = SHAPE_DEFINITION_REPRESENTATION ( #151, #122 ) ;
#129 = FACE_OUTER_BOUND ( 'NONE', #13, .T. ) ;
#130 = PERSON_AND_ORGANIZATION ( #64, #196 ) ;
#131 = DIRECTION ( 'NONE',  ( 0.0000000000000000000, 1.000000000000000000, 0.0000000000000000000 ) ) ;
#132 = LOCAL_TIME ( 10, 45, 41.00000000000000000, #194 ) ;
#133 = FACE_BOUND ( 'NONE', #143, .T. ) ;
#134 = APPROVAL_ROLE ( '' ) ;
#135 = DIRECTION ( 'NONE',  ( 3.491481338843133355E-15, -1.224646799147353207E-16, 1.000000000000000000 ) ) ;
#136 = APPLICATION_CONTEXT ( 'configuration controlled 3d designs of mechanical parts and assemblies' ) ;
#137 = DIRECTION ( 'NONE',  ( 3.491481338843133355E-15, -1.219242935835426903E-16, 1.000000000000000000 ) ) ;
#138 = AXIS2_PLACEMENT_3D ( 'NONE', #19, #135, #80 ) ;
#139 = APPROVAL ( #52, 'UNSPECIFIED' ) ;
#140 = UNCERTAINTY_MEASURE_WITH_UNIT (LENGTH_MEASURE( 1.000000000000000082E-05 ), #167, 'distance_accuracy_value', 'NONE');
#141 = DATE_TIME_ROLE ( 'creation_date' ) ;
#142 = DIRECTION ( 'NONE',  ( 1.000000000000000000, 0.0000000000000000000, 0.0000000000000000000 ) ) ;
#143 = EDGE_LOOP ( 'NONE', ( #223 ) ) ;
#144 = APPROVAL_PERSON_ORGANIZATION ( #91, #139, #74 ) ;
#145 = CIRCLE ( 'NONE', #161, 1.499999999999997558 ) ;
#146 = COORDINATED_UNIVERSAL_TIME_OFFSET ( 1, 0, .AHEAD. ) ;
#147 = AXIS2_PLACEMENT_3D ( 'NONE', #180, #115, #61 ) ;
#148 = DATE_AND_TIME ( #174, #132 ) ;
#149 = CARTESIAN_POINT ( 'NONE',  ( 2.097944988526121370E-14, -7.326129968316957166E-16, 6.008753262365292613 ) ) ;
#150 = DIRECTION ( 'NONE',  ( -3.491481338843133355E-15, 1.224646799147353207E-16, -1.000000000000000000 ) ) ;
#151 = PRODUCT_DEFINITION_SHAPE ( 'NONE', 'NONE',  #242 ) ;
#152 = CC_DESIGN_PERSON_AND_ORGANIZATION_ASSIGNMENT ( #187, #209, ( #198 ) ) ;
#153 =( GEOMETRIC_REPRESENTATION_CONTEXT ( 3 ) GLOBAL_UNCERTAINTY_ASSIGNED_CONTEXT ( ( #140 ) ) GLOBAL_UNIT_ASSIGNED_CONTEXT ( ( #167, #123, #226 ) ) REPRESENTATION_CONTEXT ( 'NONE', 'WORKASPACE' ) );
#154 = FACE_OUTER_BOUND ( 'NONE', #30, .T. ) ;
#155 = CC_DESIGN_APPROVAL ( #56, ( #224 ) ) ;
#156 = CIRCLE ( 'NONE', #33, 0.5500000000000001554 ) ;
#157 = APPROVAL_STATUS ( 'not_yet_approved' ) ;
#158 = CARTESIAN_POINT ( 'NONE',  ( -2.392401535314460328E-30, -0.5500000000000001554, -6.852110331218777446E-16 ) ) ;
#159 = ORIENTED_EDGE ( 'NONE', *, *, #117, .T. ) ;
#160 = CC_DESIGN_PERSON_AND_ORGANIZATION_ASSIGNMENT ( #22, #81, ( #110 ) ) ;
#161 = AXIS2_PLACEMENT_3D ( 'NONE', #172, #57, #219 ) ;
#162 = DATE_AND_TIME ( #108, #79 ) ;
#163 = ORIENTED_EDGE ( 'NONE', *, *, #218, .F. ) ;
#164 = CARTESIAN_POINT ( 'NONE',  ( 7.681258945454893382E-15, -0.5500000000000001554, 2.199999999999999734 ) ) ;
#165 = AXIS2_PLACEMENT_3D ( 'NONE', #192, #111, #17 ) ;
#166 = LOCAL_TIME ( 10, 45, 41.00000000000000000, #185 ) ;
#167 =( LENGTH_UNIT ( ) NAMED_UNIT ( * ) SI_UNIT ( .MILLI., .METRE. ) );
#168 = DIRECTION ( 'NONE',  ( -3.491481338843133355E-15, 1.224646799147353207E-16, -1.000000000000000000 ) ) ;
#169 = MANIFOLD_SOLID_BREP ( 'Corps-Déplacer/Copier1[1]', #124 ) ;
#170 = CARTESIAN_POINT ( 'NONE',  ( 7.681258945454893382E-15, -2.682334458837938989E-16, 2.199999999999999734 ) ) ;
#171 = EDGE_CURVE ( 'NONE', #113, #113, #121, .T. ) ;
#172 = CARTESIAN_POINT ( 'NONE',  ( 1.316288464743861212E-13, -4.616918432785521081E-15, 37.69999999999999574 ) ) ;
#173 = PRODUCT_RELATED_PRODUCT_CATEGORY ( 'detail', '', ( #198 ) ) ;
#174 = CALENDAR_DATE ( 2021, 1, 11 ) ;
#175 = CONICAL_SURFACE ( 'NONE', #68, 1.199999999999997957, 0.7853981633974450594 ) ;
#176 = DIRECTION ( 'NONE',  ( -4.275831445896958607E-31, -1.000000000000000000, -1.224646799147353207E-16 ) ) ;
#177 = PERSON_AND_ORGANIZATION_ROLE ( 'design_supplier' ) ;
#178 = CARTESIAN_POINT ( 'NONE',  ( 1.326762908760390423E-13, -4.653657836759941941E-15, 38.00000000000000000 ) ) ;
#179 = CARTESIAN_POINT ( 'NONE',  ( 7.681258945454893382E-15, -2.682334458837938989E-16, 2.199999999999999734 ) ) ;
#180 = CARTESIAN_POINT ( 'NONE',  ( 9.488582677680149762E-15, -3.313461043639761733E-16, 2.717638090205028778 ) ) ;
#181 = VERTEX_POINT ( 'NONE', #8 ) ;
#182 = APPLICATION_PROTOCOL_DEFINITION ( 'international standard', 'config_control_design', 1994, #238 ) ;
#183 = ORIENTED_EDGE ( 'NONE', *, *, #218, .T. ) ;
#184 = APPROVAL_PERSON_ORGANIZATION ( #18, #56, #134 ) ;
#185 = COORDINATED_UNIVERSAL_TIME_OFFSET ( 1, 0, .AHEAD. ) ;
#186 = ORIENTED_EDGE ( 'NONE', *, *, #117, .F. ) ;
#187 = PERSON_AND_ORGANIZATION ( #64, #196 ) ;
#188 = EDGE_LOOP ( 'NONE', ( #183 ) ) ;
#189 = CC_DESIGN_SECURITY_CLASSIFICATION ( #224, ( #110 ) ) ;
#190 = CYLINDRICAL_SURFACE ( 'NONE', #73, 1.499999999999995559 ) ;
#191 = CC_DESIGN_DATE_AND_TIME_ASSIGNMENT ( #70, #141, ( #242 ) ) ;
#192 = CARTESIAN_POINT ( 'NONE',  ( 7.681258945454894959E-15, 1.124819836996388006E-32, 2.200000000000000178 ) ) ;
#193 = AXIS2_PLACEMENT_3D ( 'NONE', #179, #36, #216 ) ;
#194 = COORDINATED_UNIVERSAL_TIME_OFFSET ( 1, 0, .AHEAD. ) ;
#195 = FACE_OUTER_BOUND ( 'NONE', #222, .T. ) ;
#196 = ORGANIZATION ( 'UNSPECIFIED', 'UNSPECIFIED', '' ) ;
#197 = DIRECTION ( 'NONE',  ( 4.275831445896958607E-31, 1.000000000000000000, 1.224646799147353207E-16 ) ) ;
#198 = PRODUCT ( '57169', '57169', '', ( #49 ) ) ;
#199 = DIRECTION ( 'NONE',  ( -4.315327242388476984E-31, -1.000000000000000000, -1.219242935835426903E-16 ) ) ;
#200 = DIRECTION ( 'NONE',  ( 3.491481338843133355E-15, -1.219242935835426903E-16, 1.000000000000000000 ) ) ;
#201 = AXIS2_PLACEMENT_3D ( 'NONE', #213, #234, #229 ) ;
#202 = DIRECTION ( 'NONE',  ( 0.0000000000000000000, -1.000000000000000000, 0.0000000000000000000 ) ) ;
#203 = EDGE_LOOP ( 'NONE', ( #205 ) ) ;
#204 = PERSON_AND_ORGANIZATION ( #64, #196 ) ;
#205 = ORIENTED_EDGE ( 'NONE', *, *, #29, .T. ) ;
#206 = CC_DESIGN_PERSON_AND_ORGANIZATION_ASSIGNMENT ( #130, #177, ( #110 ) ) ;
#207 = EDGE_LOOP ( 'NONE', ( #220 ) ) ;
#208 = CALENDAR_DATE ( 2021, 1, 11 ) ;
#209 = PERSON_AND_ORGANIZATION_ROLE ( 'design_owner' ) ;
#210 = ADVANCED_FACE ( 'NONE', ( #129, #133 ), #175, .T. ) ;
#211 = LOCAL_TIME ( 10, 45, 41.00000000000000000, #232 ) ;
#212 = AXIS2_PLACEMENT_3D ( 'NONE', #97, #27, #21 ) ;
#213 = CARTESIAN_POINT ( 'NONE',  ( 1.326762908760390423E-13, -4.653657836759941941E-15, 38.00000000000000000 ) ) ;
#214 = SECURITY_CLASSIFICATION_LEVEL ( 'unclassified' ) ;
#215 = PLANE ( 'NONE',  #212 ) ;
#216 = DIRECTION ( 'NONE',  ( 0.0000000000000000000, -1.000000000000000000, 0.0000000000000000000 ) ) ;
#217 = DIRECTION ( 'NONE',  ( 3.491481338843133355E-15, -1.219242935835426903E-16, 1.000000000000000000 ) ) ;
#218 = EDGE_CURVE ( 'NONE', #16, #16, #51, .T. ) ;
#219 = DIRECTION ( 'NONE',  ( 0.0000000000000000000, 1.000000000000000000, 0.0000000000000000000 ) ) ;
#220 = ORIENTED_EDGE ( 'NONE', *, *, #94, .T. ) ;
#221 = PERSON_AND_ORGANIZATION ( #64, #196 ) ;
#222 = EDGE_LOOP ( 'NONE', ( #45 ) ) ;
#223 = ORIENTED_EDGE ( 'NONE', *, *, #72, .T. ) ;
#224 = SECURITY_CLASSIFICATION ( '', '', #214 ) ;
#225 = CONICAL_SURFACE ( 'NONE', #125, 2.499999999999996447, 0.2617993877991429130 ) ;
#226 =( NAMED_UNIT ( * ) SI_UNIT ( $, .STERADIAN. ) SOLID_ANGLE_UNIT ( ) );
#227 = AXIS2_PLACEMENT_3D ( 'NONE', #63, #137, #100 ) ;
#228 = DIRECTION ( 'NONE',  ( 3.491481338843133355E-15, -1.219242935835426903E-16, 1.000000000000000000 ) ) ;
#229 = DIRECTION ( 'NONE',  ( 0.0000000000000000000, 1.000000000000000000, 0.0000000000000000000 ) ) ;
#230 = ADVANCED_FACE ( 'NONE', ( #118, #41 ), #225, .T. ) ;
#231 = DIRECTION ( 'NONE',  ( 3.491481338843133355E-15, -1.219242935835426903E-16, 1.000000000000000000 ) ) ;
#232 = COORDINATED_UNIVERSAL_TIME_OFFSET ( 1, 0, .AHEAD. ) ;
#233 = FACE_OUTER_BOUND ( 'NONE', #207, .T. ) ;
#234 = DIRECTION ( 'NONE',  ( -3.491481338843133355E-15, 1.224646799147353207E-16, -1.000000000000000000 ) ) ;
#235 = VERTEX_POINT ( 'NONE', #66 ) ;
#236 = LOCAL_TIME ( 10, 45, 41.00000000000000000, #146 ) ;
#237 = EDGE_LOOP ( 'NONE', ( #107 ) ) ;
#238 = APPLICATION_CONTEXT ( 'configuration controlled 3d designs of mechanical parts and assemblies' ) ;
#239 = ORIENTED_EDGE ( 'NONE', *, *, #29, .F. ) ;
#240 = PERSON_AND_ORGANIZATION_ROLE ( 'creator' ) ;
#241 = DIRECTION ( 'NONE',  ( 0.0000000000000000000, 0.0000000000000000000, 1.000000000000000000 ) ) ;
#242 = PRODUCT_DEFINITION ( 'UNKNOWN', '', #110, #46 ) ;
#243 = APPROVAL ( #31, 'UNSPECIFIED' ) ;
ENDSEC;
END-ISO-10303-21;
