ISO-10303-21;
HEADER;
FILE_DESCRIPTION (( 'STEP AP203' ),
    '1' );
FILE_NAME ('57168.step',
    '2021-11-01T09:45:40',
    ( '' ),
    ( '' ),
    'SwSTEP 2.0',
    'SolidWorks 2019',
    '' );
FILE_SCHEMA (( 'CONFIG_CONTROL_DESIGN' ));
ENDSEC;

DATA;
#1 = EDGE_LOOP ( 'NONE', ( #135 ) ) ;
#2 = CC_DESIGN_APPROVAL ( #225, ( #36 ) ) ;
#3 = DIRECTION ( 'NONE',  ( 0.0000000000000000000, 1.000000000000000000, 0.0000000000000000000 ) ) ;
#4 = DIRECTION ( 'NONE',  ( 0.0000000000000000000, -1.000000000000000000, 0.0000000000000000000 ) ) ;
#5 = DATE_TIME_ROLE ( 'classification_date' ) ;
#6 = DIRECTION ( 'NONE',  ( 0.0000000000000000000, 1.000000000000000000, 0.0000000000000000000 ) ) ;
#7 = SHAPE_DEFINITION_REPRESENTATION ( #157, #83 ) ;
#8 = CC_DESIGN_APPROVAL ( #97, ( #200 ) ) ;
#9 = DIRECTION ( 'NONE',  ( -4.275831445896958607E-31, -1.000000000000000000, -1.224646799147353207E-16 ) ) ;
#10 = DIRECTION ( 'NONE',  ( -3.491481338843133355E-15, 1.224646799147353207E-16, -1.000000000000000000 ) ) ;
#11 = VERTEX_POINT ( 'NONE', #52 ) ;
#12 = CYLINDRICAL_SURFACE ( 'NONE', #21, 1.499999999999995559 ) ;
#13 = DESIGN_CONTEXT ( 'detailed design', #35, 'design' ) ;
#14 = EDGE_CURVE ( 'NONE', #218, #218, #242, .T. ) ;
#15 = DIRECTION ( 'NONE',  ( -3.491481338843133355E-15, 1.224646799147353207E-16, -1.000000000000000000 ) ) ;
#16 = AXIS2_PLACEMENT_3D ( 'NONE', #161, #49, #214 ) ;
#17 = EDGE_LOOP ( 'NONE', ( #222 ) ) ;
#18 = EDGE_CURVE ( 'NONE', #11, #11, #78, .T. ) ;
#19 = LOCAL_TIME ( 10, 45, 40.00000000000000000, #133 ) ;
#20 =( GEOMETRIC_REPRESENTATION_CONTEXT ( 3 ) GLOBAL_UNCERTAINTY_ASSIGNED_CONTEXT ( ( #236 ) ) GLOBAL_UNIT_ASSIGNED_CONTEXT ( ( #217, #70, #50 ) ) REPRESENTATION_CONTEXT ( 'NONE', 'WORKASPACE' ) );
#21 = AXIS2_PLACEMENT_3D ( 'NONE', #184, #15, #94 ) ;
#22 = EDGE_LOOP ( 'NONE', ( #191 ) ) ;
#23 = ADVANCED_FACE ( 'NONE', ( #123, #124 ), #177, .T. ) ;
#24 = FACE_BOUND ( 'NONE', #76, .T. ) ;
#25 = AXIS2_PLACEMENT_3D ( 'NONE', #46, #141, #233 ) ;
#26 = FACE_OUTER_BOUND ( 'NONE', #22, .T. ) ;
#27 = PERSON_AND_ORGANIZATION_ROLE ( 'creator' ) ;
#28 = CARTESIAN_POINT ( 'NONE',  ( 9.488582677680149762E-15, -3.313461043639761733E-16, 2.717638090205028778 ) ) ;
#29 = FACE_BOUND ( 'NONE', #96, .T. ) ;
#30 = PERSON_AND_ORGANIZATION ( #137, #153 ) ;
#31 = TOROIDAL_SURFACE ( 'NONE', #127, 2.525000000000000799, 2.000000000000000444 ) ;
#32 = PLANE ( 'NONE',  #25 ) ;
#33 = DIRECTION ( 'NONE',  ( 1.000000000000000000, 0.0000000000000000000, 0.0000000000000000000 ) ) ;
#34 = APPROVAL_ROLE ( '' ) ;
#35 = APPLICATION_CONTEXT ( 'configuration controlled 3d designs of mechanical parts and assemblies' ) ;
#36 = PRODUCT_DEFINITION ( 'UNKNOWN', '', #109, #13 ) ;
#37 = AXIS2_PLACEMENT_3D ( 'NONE', #158, #213, #64 ) ;
#38 = APPROVAL_DATE_TIME ( #114, #225 ) ;
#39 = AXIS2_PLACEMENT_3D ( 'NONE', #171, #82, #9 ) ;
#40 = EDGE_LOOP ( 'NONE', ( #170 ) ) ;
#41 = EDGE_LOOP ( 'NONE', ( #243 ) ) ;
#42 = CIRCLE ( 'NONE', #110, 0.5249999999999996891 ) ;
#43 = EDGE_LOOP ( 'NONE', ( #118 ) ) ;
#44 = CARTESIAN_POINT ( 'NONE',  ( 1.326762908760390423E-13, -4.653657836759941941E-15, 38.00000000000000000 ) ) ;
#45 = DIRECTION ( 'NONE',  ( -4.256963957985708889E-31, -1.000000000000000000, -1.219242935835426903E-16 ) ) ;
#46 = CARTESIAN_POINT ( 'NONE',  ( -6.413803915257455362E-31, 2.249659577954771652E-32, -1.836986451539392583E-16 ) ) ;
#47 = PLANE ( 'NONE',  #169 ) ;
#48 = PERSON_AND_ORGANIZATION ( #137, #153 ) ;
#49 = DIRECTION ( 'NONE',  ( -3.491481338843133355E-15, 1.224646799147353207E-16, -1.000000000000000000 ) ) ;
#50 =( NAMED_UNIT ( * ) SI_UNIT ( $, .STERADIAN. ) SOLID_ANGLE_UNIT ( ) );
#51 = COORDINATED_UNIVERSAL_TIME_OFFSET ( 1, 0, .AHEAD. ) ;
#52 = CARTESIAN_POINT ( 'NONE',  ( 1.316288464743861212E-13, 1.499999999999993117, 37.69999999999999574 ) ) ;
#53 = VERTEX_POINT ( 'NONE', #185 ) ;
#54 = EDGE_LOOP ( 'NONE', ( #74 ) ) ;
#55 = CIRCLE ( 'NONE', #99, 0.5249999999999996891 ) ;
#56 = ORIENTED_EDGE ( 'NONE', *, *, #174, .T. ) ;
#57 = ADVANCED_FACE ( 'NONE', ( #179, #24 ), #216, .T. ) ;
#58 = DATE_AND_TIME ( #150, #19 ) ;
#59 = EDGE_LOOP ( 'NONE', ( #206 ) ) ;
#60 = DIRECTION ( 'NONE',  ( 3.491481338843133355E-15, -1.219242935835426903E-16, 1.000000000000000000 ) ) ;
#61 = FACE_OUTER_BOUND ( 'NONE', #167, .T. ) ;
#62 = CONICAL_SURFACE ( 'NONE', #235, 2.499999999999996447, 0.2617993877991429130 ) ;
#63 = DIRECTION ( 'NONE',  ( 0.0000000000000000000, -1.000000000000000000, 0.0000000000000000000 ) ) ;
#64 = DIRECTION ( 'NONE',  ( -4.256963957985708889E-31, -1.000000000000000000, -1.219242935835426903E-16 ) ) ;
#65 = PLANE ( 'NONE',  #203 ) ;
#66 = SECURITY_CLASSIFICATION_LEVEL ( 'unclassified' ) ;
#67 = CARTESIAN_POINT ( 'NONE',  ( 7.681258945454893382E-15, -0.5249999999999999112, 2.199999999999999734 ) ) ;
#68 = PERSON_AND_ORGANIZATION_ROLE ( 'design_owner' ) ;
#69 = PERSON_AND_ORGANIZATION ( #137, #153 ) ;
#70 =( NAMED_UNIT ( * ) PLANE_ANGLE_UNIT ( ) SI_UNIT ( $, .RADIAN. ) );
#71 = CIRCLE ( 'NONE', #103, 1.199999999999997957 ) ;
#72 = LOCAL_TIME ( 10, 45, 40.00000000000000000, #80 ) ;
#73 = ADVANCED_FACE ( 'NONE', ( #106 ), #32, .F. ) ;
#74 = ORIENTED_EDGE ( 'NONE', *, *, #18, .F. ) ;
#75 = CC_DESIGN_PERSON_AND_ORGANIZATION_ASSIGNMENT ( #238, #68, ( #231 ) ) ;
#76 = EDGE_LOOP ( 'NONE', ( #155 ) ) ;
#77 = APPROVAL_PERSON_ORGANIZATION ( #69, #225, #219 ) ;
#78 = CIRCLE ( 'NONE', #16, 1.499999999999997558 ) ;
#79 = DIRECTION ( 'NONE',  ( 3.491481338843133355E-15, -1.219242935835426903E-16, 1.000000000000000000 ) ) ;
#80 = COORDINATED_UNIVERSAL_TIME_OFFSET ( 1, 0, .AHEAD. ) ;
#81 = MANIFOLD_SOLID_BREP ( 'Corps-Déplacer/Copier1[1]', #210 ) ;
#82 = DIRECTION ( 'NONE',  ( 3.491481338843133355E-15, -1.224646799147353207E-16, 1.000000000000000000 ) ) ;
#83 = ADVANCED_BREP_SHAPE_REPRESENTATION ( '57168', ( #81, #85, #98 ), #20 ) ;
#84 = DIRECTION ( 'NONE',  ( 4.275831445896958607E-31, 1.000000000000000000, 1.224646799147353207E-16 ) ) ;
#85 = MANIFOLD_SOLID_BREP ( 'Corps-Déplacer/Copier1[2]', #136 ) ;
#86 = DIRECTION ( 'NONE',  ( 3.491481338843133355E-15, -1.224646799147353207E-16, 1.000000000000000000 ) ) ;
#87 = DIRECTION ( 'NONE',  ( -4.315649691473575847E-31, -1.000000000000000000, -1.219242935835426903E-16 ) ) ;
#88 = PERSON_AND_ORGANIZATION ( #137, #153 ) ;
#89 = VERTEX_POINT ( 'NONE', #116 ) ;
#90 = ADVANCED_FACE ( 'NONE', ( #26 ), #65, .T. ) ;
#91 = CALENDAR_DATE ( 2021, 1, 11 ) ;
#92 = ADVANCED_FACE ( 'NONE', ( #226 ), #104, .F. ) ;
#93 = LOCAL_TIME ( 10, 45, 40.00000000000000000, #151 ) ;
#94 = DIRECTION ( 'NONE',  ( 4.275831445896958607E-31, 1.000000000000000000, 1.224646799147353207E-16 ) ) ;
#95 = AXIS2_PLACEMENT_3D ( 'NONE', #193, #10, #6 ) ;
#96 = EDGE_LOOP ( 'NONE', ( #56 ) ) ;
#97 = APPROVAL ( #129, 'UNSPECIFIED' ) ;
#98 = AXIS2_PLACEMENT_3D ( 'NONE', #180, #115, #33 ) ;
#99 = AXIS2_PLACEMENT_3D ( 'NONE', #232, #60, #138 ) ;
#100 = ORIENTED_EDGE ( 'NONE', *, *, #14, .T. ) ;
#101 = CC_DESIGN_PERSON_AND_ORGANIZATION_ASSIGNMENT ( #139, #27, ( #109 ) ) ;
#102 = CARTESIAN_POINT ( 'NONE',  ( 7.681258945454893382E-15, -2.682334458837938989E-16, 2.199999999999999734 ) ) ;
#103 = AXIS2_PLACEMENT_3D ( 'NONE', #44, #209, #3 ) ;
#104 = PLANE ( 'NONE',  #39 ) ;
#105 = PERSON_AND_ORGANIZATION_ROLE ( 'classification_officer' ) ;
#106 = FACE_OUTER_BOUND ( 'NONE', #241, .T. ) ;
#107 = APPROVAL_DATE_TIME ( #196, #97 ) ;
#108 = DIRECTION ( 'NONE',  ( 0.0000000000000000000, -1.000000000000000000, 0.0000000000000000000 ) ) ;
#109 = PRODUCT_DEFINITION_FORMATION_WITH_SPECIFIED_SOURCE ( 'ANY', '', #231, .NOT_KNOWN. ) ;
#110 = AXIS2_PLACEMENT_3D ( 'NONE', #102, #125, #4 ) ;
#111 = FACE_OUTER_BOUND ( 'NONE', #1, .T. ) ;
#112 = PERSON_AND_ORGANIZATION ( #137, #153 ) ;
#113 = CALENDAR_DATE ( 2021, 1, 11 ) ;
#114 = DATE_AND_TIME ( #130, #205 ) ;
#115 = DIRECTION ( 'NONE',  ( 0.0000000000000000000, 0.0000000000000000000, 1.000000000000000000 ) ) ;
#116 = CARTESIAN_POINT ( 'NONE',  ( -2.371116715524531201E-30, -0.5249999999999999112, -6.791148184427004424E-16 ) ) ;
#117 = VERTEX_POINT ( 'NONE', #165 ) ;
#118 = ORIENTED_EDGE ( 'NONE', *, *, #160, .F. ) ;
#119 = APPROVAL_PERSON_ORGANIZATION ( #30, #97, #34 ) ;
#120 = EDGE_LOOP ( 'NONE', ( #188 ) ) ;
#121 = EDGE_CURVE ( 'NONE', #89, #89, #204, .T. ) ;
#122 = CARTESIAN_POINT ( 'NONE',  ( 3.433559527925879232E-14, -1.199016346620702279E-15, 9.834105340123496575 ) ) ;
#123 = FACE_OUTER_BOUND ( 'NONE', #134, .T. ) ;
#124 = FACE_OUTER_BOUND ( 'NONE', #43, .T. ) ;
#125 = DIRECTION ( 'NONE',  ( 3.491481338843133355E-15, -1.219242935835426903E-16, 1.000000000000000000 ) ) ;
#126 = DIRECTION ( 'NONE',  ( -3.491481338843133355E-15, 1.219242935835426903E-16, -1.000000000000000000 ) ) ;
#127 = AXIS2_PLACEMENT_3D ( 'NONE', #197, #227, #87 ) ;
#128 = CARTESIAN_POINT ( 'NONE',  ( 2.130520952901725821E-14, -1.499999999999996225, 6.102054532554517685 ) ) ;
#129 = APPROVAL_STATUS ( 'not_yet_approved' ) ;
#130 = CALENDAR_DATE ( 2021, 1, 11 ) ;
#131 = APPLICATION_PROTOCOL_DEFINITION ( 'international standard', 'config_control_design', 1994, #35 ) ;
#132 = ADVANCED_FACE ( 'NONE', ( #159 ), #47, .F. ) ;
#133 = COORDINATED_UNIVERSAL_TIME_OFFSET ( 1, 0, .AHEAD. ) ;
#134 = EDGE_LOOP ( 'NONE', ( #156 ) ) ;
#135 = ORIENTED_EDGE ( 'NONE', *, *, #221, .T. ) ;
#136 = CLOSED_SHELL ( 'NONE', ( #90, #23, #73 ) ) ;
#137 = PERSON ( 'UNSPECIFIED', 'UNSPECIFIED', 'UNSPECIFIED', ('UNSPECIFIED'), ('UNSPECIFIED'), ('UNSPECIFIED') ) ;
#138 = DIRECTION ( 'NONE',  ( 0.0000000000000000000, -1.000000000000000000, 0.0000000000000000000 ) ) ;
#139 = PERSON_AND_ORGANIZATION ( #137, #153 ) ;
#140 = CC_DESIGN_PERSON_AND_ORGANIZATION_ASSIGNMENT ( #48, #105, ( #200 ) ) ;
#141 = DIRECTION ( 'NONE',  ( 3.491481338843133355E-15, -1.224646799147353207E-16, 1.000000000000000000 ) ) ;
#142 = AXIS2_PLACEMENT_3D ( 'NONE', #223, #126, #195 ) ;
#143 = FACE_OUTER_BOUND ( 'NONE', #41, .T. ) ;
#144 = FACE_OUTER_BOUND ( 'NONE', #120, .T. ) ;
#145 = CALENDAR_DATE ( 2021, 1, 11 ) ;
#146 = CARTESIAN_POINT ( 'NONE',  ( -2.147626107730281499E-30, 7.499618948367300258E-32, -6.151045643113405448E-16 ) ) ;
#147 = DATE_AND_TIME ( #145, #149 ) ;
#148 = CC_DESIGN_DATE_AND_TIME_ASSIGNMENT ( #239, #220, ( #36 ) ) ;
#149 = LOCAL_TIME ( 10, 45, 40.00000000000000000, #51 ) ;
#150 = CALENDAR_DATE ( 2021, 1, 11 ) ;
#151 = COORDINATED_UNIVERSAL_TIME_OFFSET ( 1, 0, .AHEAD. ) ;
#152 = CARTESIAN_POINT ( 'NONE',  ( 9.488582677680149762E-15, -0.5931483474218605112, 2.717638090205028778 ) ) ;
#153 = ORGANIZATION ( 'UNSPECIFIED', 'UNSPECIFIED', '' ) ;
#154 = APPROVAL_STATUS ( 'not_yet_approved' ) ;
#155 = ORIENTED_EDGE ( 'NONE', *, *, #199, .T. ) ;
#156 = ORIENTED_EDGE ( 'NONE', *, *, #121, .T. ) ;
#157 = PRODUCT_DEFINITION_SHAPE ( 'NONE', 'NONE',  #36 ) ;
#158 = CARTESIAN_POINT ( 'NONE',  ( 0.0000000000000000000, 0.0000000000000000000, 0.0000000000000000000 ) ) ;
#159 = FACE_OUTER_BOUND ( 'NONE', #40, .T. ) ;
#160 = EDGE_CURVE ( 'NONE', #183, #183, #42, .T. ) ;
#161 = CARTESIAN_POINT ( 'NONE',  ( 1.316288464743861212E-13, -4.616918432785521081E-15, 37.69999999999999574 ) ) ;
#162 = CARTESIAN_POINT ( 'NONE',  ( 1.326762908760390423E-13, 8.998558695971062171E-33, 38.00000000000000000 ) ) ;
#163 = DIRECTION ( 'NONE',  ( -4.275831445896958607E-31, -1.000000000000000000, -1.224646799147353207E-16 ) ) ;
#164 = PERSON_AND_ORGANIZATION_ROLE ( 'creator' ) ;
#165 = CARTESIAN_POINT ( 'NONE',  ( 7.681258945454893382E-15, -0.5249999999999999112, 2.199999999999999734 ) ) ;
#166 = PRODUCT_RELATED_PRODUCT_CATEGORY ( 'detail', '', ( #231 ) ) ;
#167 = EDGE_LOOP ( 'NONE', ( #100 ) ) ;
#168 = APPROVAL_DATE_TIME ( #58, #182 ) ;
#169 = AXIS2_PLACEMENT_3D ( 'NONE', #162, #173, #84 ) ;
#170 = ORIENTED_EDGE ( 'NONE', *, *, #199, .F. ) ;
#171 = CARTESIAN_POINT ( 'NONE',  ( 7.681258945454894959E-15, 1.124819836996388006E-32, 2.200000000000000178 ) ) ;
#172 = AXIS2_PLACEMENT_3D ( 'NONE', #146, #79, #45 ) ;
#173 = DIRECTION ( 'NONE',  ( -3.491481338843133355E-15, 1.224646799147353207E-16, -1.000000000000000000 ) ) ;
#174 = EDGE_CURVE ( 'NONE', #198, #198, #224, .T. ) ;
#175 = CARTESIAN_POINT ( 'NONE',  ( 7.681258945454894959E-15, 1.124819836996388006E-32, 2.200000000000000178 ) ) ;
#176 = CC_DESIGN_SECURITY_CLASSIFICATION ( #200, ( #109 ) ) ;
#177 = CYLINDRICAL_SURFACE ( 'NONE', #37, 0.5249999999999998002 ) ;
#178 = CC_DESIGN_APPROVAL ( #182, ( #109 ) ) ;
#179 = FACE_OUTER_BOUND ( 'NONE', #54, .T. ) ;
#180 = CARTESIAN_POINT ( 'NONE',  ( 0.0000000000000000000, 0.0000000000000000000, 0.0000000000000000000 ) ) ;
#181 = APPLICATION_PROTOCOL_DEFINITION ( 'international standard', 'config_control_design', 1994, #228 ) ;
#182 = APPROVAL ( #154, 'UNSPECIFIED' ) ;
#183 = VERTEX_POINT ( 'NONE', #67 ) ;
#184 = CARTESIAN_POINT ( 'NONE',  ( 0.0000000000000000000, 0.0000000000000000000, 0.0000000000000000000 ) ) ;
#185 = CARTESIAN_POINT ( 'NONE',  ( 1.326762908760390423E-13, 1.199999999999993294, 38.00000000000000000 ) ) ;
#186 = AXIS2_PLACEMENT_3D ( 'NONE', #28, #230, #63 ) ;
#187 = CC_DESIGN_PERSON_AND_ORGANIZATION_ASSIGNMENT ( #112, #164, ( #36 ) ) ;
#188 = ORIENTED_EDGE ( 'NONE', *, *, #14, .F. ) ;
#189 = CC_DESIGN_DATE_AND_TIME_ASSIGNMENT ( #147, #5, ( #200 ) ) ;
#190 = ORIENTED_EDGE ( 'NONE', *, *, #121, .F. ) ;
#191 = ORIENTED_EDGE ( 'NONE', *, *, #160, .T. ) ;
#192 = DIRECTION ( 'NONE',  ( 3.491481338843133355E-15, -1.219242935835426903E-16, 1.000000000000000000 ) ) ;
#193 = CARTESIAN_POINT ( 'NONE',  ( 1.326762908760390423E-13, -4.653657836759941941E-15, 38.00000000000000000 ) ) ;
#194 = PERSON_AND_ORGANIZATION_ROLE ( 'design_supplier' ) ;
#195 = DIRECTION ( 'NONE',  ( 0.0000000000000000000, -1.000000000000000000, 0.0000000000000000000 ) ) ;
#196 = DATE_AND_TIME ( #113, #72 ) ;
#197 = CARTESIAN_POINT ( 'NONE',  ( 7.681258945454893382E-15, -4.336808689942017736E-16, 2.199999999999999734 ) ) ;
#198 = VERTEX_POINT ( 'NONE', #152 ) ;
#199 = EDGE_CURVE ( 'NONE', #53, #53, #71, .T. ) ;
#200 = SECURITY_CLASSIFICATION ( '', '', #66 ) ;
#201 = COORDINATED_UNIVERSAL_TIME_OFFSET ( 1, 0, .AHEAD. ) ;
#202 = ADVANCED_FACE ( 'NONE', ( #111, #143 ), #31, .F. ) ;
#203 = AXIS2_PLACEMENT_3D ( 'NONE', #175, #86, #163 ) ;
#204 = CIRCLE ( 'NONE', #172, 0.5249999999999999112 ) ;
#205 = LOCAL_TIME ( 10, 45, 40.00000000000000000, #201 ) ;
#206 = ORIENTED_EDGE ( 'NONE', *, *, #18, .T. ) ;
#207 = ADVANCED_FACE ( 'NONE', ( #29, #61 ), #62, .T. ) ;
#208 = FACE_OUTER_BOUND ( 'NONE', #59, .T. ) ;
#209 = DIRECTION ( 'NONE',  ( -3.491481338843133355E-15, 1.224646799147353207E-16, -1.000000000000000000 ) ) ;
#210 = CLOSED_SHELL ( 'NONE', ( #229, #57, #132, #207, #202, #92 ) ) ;
#211 = PERSON_AND_ORGANIZATION ( #137, #153 ) ;
#212 = CC_DESIGN_PERSON_AND_ORGANIZATION_ASSIGNMENT ( #211, #194, ( #109 ) ) ;
#213 = DIRECTION ( 'NONE',  ( 3.491481338843133355E-15, -1.219242935835426903E-16, 1.000000000000000000 ) ) ;
#214 = DIRECTION ( 'NONE',  ( 0.0000000000000000000, 1.000000000000000000, 0.0000000000000000000 ) ) ;
#215 = APPROVAL_STATUS ( 'not_yet_approved' ) ;
#216 = CONICAL_SURFACE ( 'NONE', #95, 1.199999999999997957, 0.7853981633974450594 ) ;
#217 =( LENGTH_UNIT ( ) NAMED_UNIT ( * ) SI_UNIT ( .MILLI., .METRE. ) );
#218 = VERTEX_POINT ( 'NONE', #128 ) ;
#219 = APPROVAL_ROLE ( '' ) ;
#220 = DATE_TIME_ROLE ( 'creation_date' ) ;
#221 = EDGE_CURVE ( 'NONE', #117, #117, #55, .T. ) ;
#222 = ORIENTED_EDGE ( 'NONE', *, *, #221, .F. ) ;
#223 = CARTESIAN_POINT ( 'NONE',  ( 2.130520952901725821E-14, -7.439886882899644484E-16, 6.102054532554517685 ) ) ;
#224 = CIRCLE ( 'NONE', #186, 0.5931483474218601781 ) ;
#225 = APPROVAL ( #215, 'UNSPECIFIED' ) ;
#226 = FACE_OUTER_BOUND ( 'NONE', #17, .T. ) ;
#227 = DIRECTION ( 'NONE',  ( 3.491481338843133355E-15, -1.219242935835426903E-16, 1.000000000000000000 ) ) ;
#228 = APPLICATION_CONTEXT ( 'configuration controlled 3d designs of mechanical parts and assemblies' ) ;
#229 = ADVANCED_FACE ( 'NONE', ( #208, #144 ), #12, .T. ) ;
#230 = DIRECTION ( 'NONE',  ( 3.491481338843133355E-15, -1.219242935835426903E-16, 1.000000000000000000 ) ) ;
#231 = PRODUCT ( '57168', '57168', '', ( #237 ) ) ;
#232 = CARTESIAN_POINT ( 'NONE',  ( 7.681258945454893382E-15, -2.682334458837938989E-16, 2.199999999999999734 ) ) ;
#233 = DIRECTION ( 'NONE',  ( -4.275831445896958607E-31, -1.000000000000000000, -1.224646799147353207E-16 ) ) ;
#234 = APPROVAL_ROLE ( '' ) ;
#235 = AXIS2_PLACEMENT_3D ( 'NONE', #122, #192, #108 ) ;
#236 = UNCERTAINTY_MEASURE_WITH_UNIT (LENGTH_MEASURE( 1.000000000000000082E-05 ), #217, 'distance_accuracy_value', 'NONE');
#237 = MECHANICAL_CONTEXT ( 'NONE', #228, 'mechanical' ) ;
#238 = PERSON_AND_ORGANIZATION ( #137, #153 ) ;
#239 = DATE_AND_TIME ( #91, #93 ) ;
#240 = APPROVAL_PERSON_ORGANIZATION ( #88, #182, #234 ) ;
#241 = EDGE_LOOP ( 'NONE', ( #190 ) ) ;
#242 = CIRCLE ( 'NONE', #142, 1.499999999999995559 ) ;
#243 = ORIENTED_EDGE ( 'NONE', *, *, #174, .F. ) ;
ENDSEC;
END-ISO-10303-21;
