ISO-10303-21;
HEADER;
FILE_DESCRIPTION (( 'STEP AP203' ),
    '1' );
FILE_NAME ('57167.step',
    '2021-11-01T09:45:40',
    ( '' ),
    ( '' ),
    'SwSTEP 2.0',
    'SolidWorks 2019',
    '' );
FILE_SCHEMA (( 'CONFIG_CONTROL_DESIGN' ));
ENDSEC;

DATA;
#1 = CC_DESIGN_APPROVAL ( #85, ( #167 ) ) ;
#2 = DATE_AND_TIME ( #223, #70 ) ;
#3 = COORDINATED_UNIVERSAL_TIME_OFFSET ( 1, 0, .AHEAD. ) ;
#4 = EDGE_LOOP ( 'NONE', ( #147 ) ) ;
#5 = EDGE_LOOP ( 'NONE', ( #96 ) ) ;
#6 = CIRCLE ( 'NONE', #138, 1.499999999999997558 ) ;
#7 = PERSON_AND_ORGANIZATION_ROLE ( 'design_supplier' ) ;
#8 = DIRECTION ( 'NONE',  ( 0.0000000000000000000, -1.000000000000000000, 0.0000000000000000000 ) ) ;
#9 = CIRCLE ( 'NONE', #243, 0.4749999999999995337 ) ;
#10 = DIRECTION ( 'NONE',  ( -4.256963957985708889E-31, -1.000000000000000000, -1.219242935835427149E-16 ) ) ;
#11 = DIRECTION ( 'NONE',  ( -4.275831445896958607E-31, -1.000000000000000000, -1.224646799147353207E-16 ) ) ;
#12 = APPROVAL ( #200, 'UNSPECIFIED' ) ;
#13 = FACE_OUTER_BOUND ( 'NONE', #171, .T. ) ;
#14 = CARTESIAN_POINT ( 'NONE',  ( 6.982962677686265133E-15, -4.336808689942017736E-16, 1.999999999999999556 ) ) ;
#15 = CIRCLE ( 'NONE', #18, 0.4750000000000001443 ) ;
#16 = LOCAL_TIME ( 10, 45, 40.00000000000000000, #126 ) ;
#17 = EDGE_CURVE ( 'NONE', #68, #68, #6, .T. ) ;
#18 = AXIS2_PLACEMENT_3D ( 'NONE', #208, #102, #90 ) ;
#19 = LOCAL_TIME ( 10, 45, 40.00000000000000000, #241 ) ;
#20 = LOCAL_TIME ( 10, 45, 40.00000000000000000, #3 ) ;
#21 = ADVANCED_FACE ( 'NONE', ( #13, #139 ), #177, .T. ) ;
#22 = PERSON_AND_ORGANIZATION_ROLE ( 'creator' ) ;
#23 = PERSON_AND_ORGANIZATION_ROLE ( 'classification_officer' ) ;
#24 = APPROVAL_PERSON_ORGANIZATION ( #55, #12, #180 ) ;
#25 = ORIENTED_EDGE ( 'NONE', *, *, #203, .F. ) ;
#26 = PLANE ( 'NONE',  #232 ) ;
#27 = CC_DESIGN_PERSON_AND_ORGANIZATION_ASSIGNMENT ( #74, #182, ( #230 ) ) ;
#28 = DIRECTION ( 'NONE',  ( 0.0000000000000000000, -1.000000000000000000, 0.0000000000000000000 ) ) ;
#29 = FACE_OUTER_BOUND ( 'NONE', #205, .T. ) ;
#30 = CYLINDRICAL_SURFACE ( 'NONE', #103, 0.4749999999999998113 ) ;
#31 = DIRECTION ( 'NONE',  ( 0.0000000000000000000, -1.000000000000000000, 0.0000000000000000000 ) ) ;
#32 = AXIS2_PLACEMENT_3D ( 'NONE', #172, #46, #28 ) ;
#33 = AXIS2_PLACEMENT_3D ( 'NONE', #107, #158, #93 ) ;
#34 = CARTESIAN_POINT ( 'NONE',  ( -2.328547075944674348E-30, -0.4750000000000001443, -6.669223890843463312E-16 ) ) ;
#35 = MECHANICAL_CONTEXT ( 'NONE', #199, 'mechanical' ) ;
#36 = CARTESIAN_POINT ( 'NONE',  ( 6.982962677686265133E-15, -0.4749999999999997558, 1.999999999999999556 ) ) ;
#37 = CARTESIAN_POINT ( 'NONE',  ( 1.326762908760390423E-13, 1.199999999999993294, 38.00000000000000000 ) ) ;
#38 = ORIENTED_EDGE ( 'NONE', *, *, #65, .F. ) ;
#39 = AXIS2_PLACEMENT_3D ( 'NONE', #175, #240, #11 ) ;
#40 = APPROVAL_DATE_TIME ( #141, #12 ) ;
#41 = EDGE_LOOP ( 'NONE', ( #229 ) ) ;
#42 = COORDINATED_UNIVERSAL_TIME_OFFSET ( 1, 0, .AHEAD. ) ;
#43 = ORIENTED_EDGE ( 'NONE', *, *, #17, .F. ) ;
#44 = ORIENTED_EDGE ( 'NONE', *, *, #201, .T. ) ;
#45 = DIRECTION ( 'NONE',  ( 0.0000000000000000000, -1.000000000000000000, 0.0000000000000000000 ) ) ;
#46 = DIRECTION ( 'NONE',  ( 3.491481338843133355E-15, -1.219242935835426903E-16, 1.000000000000000000 ) ) ;
#47 = APPROVAL_PERSON_ORGANIZATION ( #56, #88, #112 ) ;
#48 = DIRECTION ( 'NONE',  ( -4.275831445896958607E-31, -1.000000000000000000, -1.224646799147353207E-16 ) ) ;
#49 = FACE_BOUND ( 'NONE', #59, .T. ) ;
#50 = FACE_OUTER_BOUND ( 'NONE', #5, .T. ) ;
#51 = DATE_AND_TIME ( #219, #118 ) ;
#52 =( NAMED_UNIT ( * ) PLANE_ANGLE_UNIT ( ) SI_UNIT ( $, .RADIAN. ) );
#53 = APPROVAL_DATE_TIME ( #51, #85 ) ;
#54 = CC_DESIGN_SECURITY_CLASSIFICATION ( #111, ( #99 ) ) ;
#55 = PERSON_AND_ORGANIZATION ( #234, #216 ) ;
#56 = PERSON_AND_ORGANIZATION ( #234, #216 ) ;
#57 = DATE_AND_TIME ( #109, #20 ) ;
#58 = CC_DESIGN_APPROVAL ( #88, ( #111 ) ) ;
#59 = EDGE_LOOP ( 'NONE', ( #231 ) ) ;
#60 = AXIS2_PLACEMENT_3D ( 'NONE', #63, #64, #212 ) ;
#61 = FACE_OUTER_BOUND ( 'NONE', #169, .T. ) ;
#62 = DIRECTION ( 'NONE',  ( -4.316305397992992729E-31, -1.000000000000000000, -1.219242935835426903E-16 ) ) ;
#63 = CARTESIAN_POINT ( 'NONE',  ( 6.982962677686265133E-15, -2.438485871670853312E-16, 1.999999999999999556 ) ) ;
#64 = DIRECTION ( 'NONE',  ( 3.491481338843133355E-15, -1.219242935835426903E-16, 1.000000000000000000 ) ) ;
#65 = EDGE_CURVE ( 'NONE', #217, #217, #239, .T. ) ;
#66 = CARTESIAN_POINT ( 'NONE',  ( 6.982962677686265133E-15, -2.438485871670853312E-16, 1.999999999999999556 ) ) ;
#67 = CALENDAR_DATE ( 2021, 1, 11 ) ;
#68 = VERTEX_POINT ( 'NONE', #196 ) ;
#69 = AXIS2_PLACEMENT_3D ( 'NONE', #152, #195, #191 ) ;
#70 = LOCAL_TIME ( 10, 45, 40.00000000000000000, #42 ) ;
#71 = ADVANCED_FACE ( 'NONE', ( #97, #101 ), #30, .T. ) ;
#72 = DESIGN_CONTEXT ( 'detailed design', #127, 'design' ) ;
#73 = DIRECTION ( 'NONE',  ( -3.491481338843133355E-15, 1.224646799147353207E-16, -1.000000000000000000 ) ) ;
#74 = PERSON_AND_ORGANIZATION ( #234, #216 ) ;
#75 = PERSON_AND_ORGANIZATION ( #234, #216 ) ;
#76 = CONICAL_SURFACE ( 'NONE', #32, 2.499999999999996447, 0.2617993877991430240 ) ;
#77 = APPROVAL_DATE_TIME ( #57, #88 ) ;
#78 = DATE_TIME_ROLE ( 'classification_date' ) ;
#79 = EDGE_LOOP ( 'NONE', ( #113 ) ) ;
#80 = EDGE_LOOP ( 'NONE', ( #133 ) ) ;
#81 = EDGE_CURVE ( 'NONE', #159, #159, #110, .T. ) ;
#82 = ORIENTED_EDGE ( 'NONE', *, *, #222, .T. ) ;
#83 = DIRECTION ( 'NONE',  ( 3.491481338843133355E-15, -1.219242935835426903E-16, 1.000000000000000000 ) ) ;
#84 = CARTESIAN_POINT ( 'NONE',  ( 2.125843254876069846E-14, -7.423552124897924074E-16, 6.088657072932964098 ) ) ;
#85 = APPROVAL ( #162, 'UNSPECIFIED' ) ;
#86 = CARTESIAN_POINT ( 'NONE',  ( 0.0000000000000000000, 0.0000000000000000000, 0.0000000000000000000 ) ) ;
#87 = FACE_OUTER_BOUND ( 'NONE', #185, .T. ) ;
#88 = APPROVAL ( #224, 'UNSPECIFIED' ) ;
#89 = AXIS2_PLACEMENT_3D ( 'NONE', #176, #135, #45 ) ;
#90 = DIRECTION ( 'NONE',  ( -4.256963957985709765E-31, -1.000000000000000000, -1.219242935835427642E-16 ) ) ;
#91 = PLANE ( 'NONE',  #130 ) ;
#92 = UNCERTAINTY_MEASURE_WITH_UNIT (LENGTH_MEASURE( 1.000000000000000082E-05 ), #218, 'distance_accuracy_value', 'NONE');
#93 = DIRECTION ( 'NONE',  ( 1.000000000000000000, 0.0000000000000000000, 0.0000000000000000000 ) ) ;
#94 = CC_DESIGN_DATE_AND_TIME_ASSIGNMENT ( #2, #78, ( #111 ) ) ;
#95 = APPLICATION_PROTOCOL_DEFINITION ( 'international standard', 'config_control_design', 1994, #127 ) ;
#96 = ORIENTED_EDGE ( 'NONE', *, *, #148, .F. ) ;
#97 = FACE_OUTER_BOUND ( 'NONE', #41, .T. ) ;
#98 = AXIS2_PLACEMENT_3D ( 'NONE', #154, #238, #48 ) ;
#99 = PRODUCT_DEFINITION_FORMATION_WITH_SPECIFIED_SOURCE ( 'ANY', '', #230, .NOT_KNOWN. ) ;
#100 = DIRECTION ( 'NONE',  ( 3.491481338843133355E-15, -1.219242935835426903E-16, 1.000000000000000000 ) ) ;
#101 = FACE_OUTER_BOUND ( 'NONE', #80, .T. ) ;
#102 = DIRECTION ( 'NONE',  ( 3.491481338843133355E-15, -1.219242935835426903E-16, 1.000000000000000000 ) ) ;
#103 = AXIS2_PLACEMENT_3D ( 'NONE', #189, #100, #10 ) ;
#104 = DATE_TIME_ROLE ( 'creation_date' ) ;
#105 = CARTESIAN_POINT ( 'NONE',  ( 2.125843254876069846E-14, -1.499999999999996225, 6.088657072932964098 ) ) ;
#106 = CLOSED_SHELL ( 'NONE', ( #194, #71, #186 ) ) ;
#107 = CARTESIAN_POINT ( 'NONE',  ( 0.0000000000000000000, 0.0000000000000000000, 0.0000000000000000000 ) ) ;
#108 = ADVANCED_FACE ( 'NONE', ( #29, #140 ), #178, .T. ) ;
#109 = CALENDAR_DATE ( 2021, 1, 11 ) ;
#110 = CIRCLE ( 'NONE', #220, 1.499999999999995559 ) ;
#111 = SECURITY_CLASSIFICATION ( '', '', #206 ) ;
#112 = APPROVAL_ROLE ( '' ) ;
#113 = ORIENTED_EDGE ( 'NONE', *, *, #81, .F. ) ;
#114 = AXIS2_PLACEMENT_3D ( 'NONE', #14, #83, #62 ) ;
#115 = MANIFOLD_SOLID_BREP ( 'Corps-Déplacer/Copier1[2]', #106 ) ;
#116 = CARTESIAN_POINT ( 'NONE',  ( 6.982962677686266711E-15, 1.124819836996388006E-32, 2.000000000000000000 ) ) ;
#117 = MANIFOLD_SOLID_BREP ( 'Corps-Déplacer/Copier1[1]', #202 ) ;
#118 = LOCAL_TIME ( 10, 45, 40.00000000000000000, #144 ) ;
#119 = ADVANCED_FACE ( 'NONE', ( #213, #155 ), #160, .F. ) ;
#120 = DIRECTION ( 'NONE',  ( 3.491481338843133355E-15, -1.224646799147353207E-16, 1.000000000000000000 ) ) ;
#121 = CARTESIAN_POINT ( 'NONE',  ( 1.326762908760390423E-13, -4.653657836759941941E-15, 38.00000000000000000 ) ) ;
#122 = DIRECTION ( 'NONE',  ( 3.491481338843133355E-15, -1.219242935835426903E-16, 1.000000000000000000 ) ) ;
#123 = CIRCLE ( 'NONE', #153, 1.199999999999997957 ) ;
#124 = CARTESIAN_POINT ( 'NONE',  ( 6.982962677686265133E-15, -0.4749999999999997558, 1.999999999999999556 ) ) ;
#125 = DIRECTION ( 'NONE',  ( 4.275831445896958607E-31, 1.000000000000000000, 1.224646799147353207E-16 ) ) ;
#126 = COORDINATED_UNIVERSAL_TIME_OFFSET ( 1, 0, .AHEAD. ) ;
#127 = APPLICATION_CONTEXT ( 'configuration controlled 3d designs of mechanical parts and assemblies' ) ;
#128 =( NAMED_UNIT ( * ) SI_UNIT ( $, .STERADIAN. ) SOLID_ANGLE_UNIT ( ) );
#129 = CC_DESIGN_PERSON_AND_ORGANIZATION_ASSIGNMENT ( #170, #23, ( #111 ) ) ;
#130 = AXIS2_PLACEMENT_3D ( 'NONE', #242, #73, #125 ) ;
#131 = ORIENTED_EDGE ( 'NONE', *, *, #81, .T. ) ;
#132 = EDGE_LOOP ( 'NONE', ( #38 ) ) ;
#133 = ORIENTED_EDGE ( 'NONE', *, *, #201, .F. ) ;
#134 = DIRECTION ( 'NONE',  ( 4.275831445896958607E-31, 1.000000000000000000, 1.224646799147353207E-16 ) ) ;
#135 = DIRECTION ( 'NONE',  ( 3.491481338843133355E-15, -1.219242935835426903E-16, 1.000000000000000000 ) ) ;
#136 = CC_DESIGN_PERSON_AND_ORGANIZATION_ASSIGNMENT ( #228, #7, ( #99 ) ) ;
#137 = DIRECTION ( 'NONE',  ( -3.491481338843133355E-15, 1.224646799147353207E-16, -1.000000000000000000 ) ) ;
#138 = AXIS2_PLACEMENT_3D ( 'NONE', #188, #137, #192 ) ;
#139 = FACE_OUTER_BOUND ( 'NONE', #79, .T. ) ;
#140 = FACE_BOUND ( 'NONE', #4, .T. ) ;
#141 = DATE_AND_TIME ( #67, #19 ) ;
#142 = VERTEX_POINT ( 'NONE', #124 ) ;
#143 = CC_DESIGN_DATE_AND_TIME_ASSIGNMENT ( #145, #104, ( #167 ) ) ;
#144 = COORDINATED_UNIVERSAL_TIME_OFFSET ( 1, 0, .AHEAD. ) ;
#145 = DATE_AND_TIME ( #198, #16 ) ;
#146 = SHAPE_DEFINITION_REPRESENTATION ( #150, #184 ) ;
#147 = ORIENTED_EDGE ( 'NONE', *, *, #203, .T. ) ;
#148 = EDGE_CURVE ( 'NONE', #164, #164, #15, .T. ) ;
#149 = PERSON_AND_ORGANIZATION_ROLE ( 'creator' ) ;
#150 = PRODUCT_DEFINITION_SHAPE ( 'NONE', 'NONE',  #167 ) ;
#151 = ORIENTED_EDGE ( 'NONE', *, *, #222, .F. ) ;
#152 = CARTESIAN_POINT ( 'NONE',  ( 1.326762908760390423E-13, -4.653657836759941941E-15, 38.00000000000000000 ) ) ;
#153 = AXIS2_PLACEMENT_3D ( 'NONE', #121, #233, #193 ) ;
#154 = CARTESIAN_POINT ( 'NONE',  ( -6.413803915257455362E-31, 2.249659577954771652E-32, -1.836986451539392583E-16 ) ) ;
#155 = FACE_OUTER_BOUND ( 'NONE', #132, .T. ) ;
#156 = PLANE ( 'NONE',  #39 ) ;
#157 = FACE_OUTER_BOUND ( 'NONE', #225, .T. ) ;
#158 = DIRECTION ( 'NONE',  ( 0.0000000000000000000, 0.0000000000000000000, 1.000000000000000000 ) ) ;
#159 = VERTEX_POINT ( 'NONE', #105 ) ;
#160 = TOROIDAL_SURFACE ( 'NONE', #114, 2.475000000000000977, 2.000000000000000888 ) ;
#161 = APPROVAL_PERSON_ORGANIZATION ( #197, #85, #163 ) ;
#162 = APPROVAL_STATUS ( 'not_yet_approved' ) ;
#163 = APPROVAL_ROLE ( '' ) ;
#164 = VERTEX_POINT ( 'NONE', #34 ) ;
#165 = CIRCLE ( 'NONE', #60, 0.4749999999999995337 ) ;
#166 = CC_DESIGN_APPROVAL ( #12, ( #99 ) ) ;
#167 = PRODUCT_DEFINITION ( 'UNKNOWN', '', #99, #72 ) ;
#168 = EDGE_LOOP ( 'NONE', ( #82 ) ) ;
#169 = EDGE_LOOP ( 'NONE', ( #25 ) ) ;
#170 = PERSON_AND_ORGANIZATION ( #234, #216 ) ;
#171 = EDGE_LOOP ( 'NONE', ( #187 ) ) ;
#172 = CARTESIAN_POINT ( 'NONE',  ( 3.428881829900222942E-14, -1.197382870820529943E-15, 9.820707880501942100 ) ) ;
#173 = CC_DESIGN_PERSON_AND_ORGANIZATION_ASSIGNMENT ( #75, #22, ( #167 ) ) ;
#174 = FACE_OUTER_BOUND ( 'NONE', #207, .T. ) ;
#175 = CARTESIAN_POINT ( 'NONE',  ( 6.982962677686266711E-15, 1.124819836996388006E-32, 2.000000000000000000 ) ) ;
#176 = CARTESIAN_POINT ( 'NONE',  ( 8.790286409911523091E-15, -3.069612456472676549E-16, 2.517638090205028600 ) ) ;
#177 = CYLINDRICAL_SURFACE ( 'NONE', #215, 1.499999999999995559 ) ;
#178 = CONICAL_SURFACE ( 'NONE', #69, 1.199999999999997957, 0.7853981633974450594 ) ;
#179 = ADVANCED_FACE ( 'NONE', ( #157 ), #26, .F. ) ;
#180 = APPROVAL_ROLE ( '' ) ;
#181 = VERTEX_POINT ( 'NONE', #37 ) ;
#182 = PERSON_AND_ORGANIZATION_ROLE ( 'design_owner' ) ;
#183 = CARTESIAN_POINT ( 'NONE',  ( 8.790286409911523091E-15, -0.5431483474218603558, 2.517638090205028600 ) ) ;
#184 = ADVANCED_BREP_SHAPE_REPRESENTATION ( '57167', ( #117, #115, #33 ), #227 ) ;
#185 = EDGE_LOOP ( 'NONE', ( #44 ) ) ;
#186 = ADVANCED_FACE ( 'NONE', ( #50 ), #209, .F. ) ;
#187 = ORIENTED_EDGE ( 'NONE', *, *, #17, .T. ) ;
#188 = CARTESIAN_POINT ( 'NONE',  ( 1.316288464743861212E-13, -4.616918432785521081E-15, 37.69999999999999574 ) ) ;
#189 = CARTESIAN_POINT ( 'NONE',  ( 0.0000000000000000000, 0.0000000000000000000, 0.0000000000000000000 ) ) ;
#190 = ADVANCED_FACE ( 'NONE', ( #49, #174 ), #76, .T. ) ;
#191 = DIRECTION ( 'NONE',  ( 0.0000000000000000000, 1.000000000000000000, 0.0000000000000000000 ) ) ;
#192 = DIRECTION ( 'NONE',  ( 0.0000000000000000000, 1.000000000000000000, 0.0000000000000000000 ) ) ;
#193 = DIRECTION ( 'NONE',  ( 0.0000000000000000000, 1.000000000000000000, 0.0000000000000000000 ) ) ;
#194 = ADVANCED_FACE ( 'NONE', ( #87 ), #156, .T. ) ;
#195 = DIRECTION ( 'NONE',  ( -3.491481338843133355E-15, 1.224646799147353207E-16, -1.000000000000000000 ) ) ;
#196 = CARTESIAN_POINT ( 'NONE',  ( 1.316288464743861212E-13, 1.499999999999993117, 37.69999999999999574 ) ) ;
#197 = PERSON_AND_ORGANIZATION ( #234, #216 ) ;
#198 = CALENDAR_DATE ( 2021, 1, 11 ) ;
#199 = APPLICATION_CONTEXT ( 'configuration controlled 3d designs of mechanical parts and assemblies' ) ;
#200 = APPROVAL_STATUS ( 'not_yet_approved' ) ;
#201 = EDGE_CURVE ( 'NONE', #142, #142, #165, .T. ) ;
#202 = CLOSED_SHELL ( 'NONE', ( #21, #108, #237, #190, #119, #179 ) ) ;
#203 = EDGE_CURVE ( 'NONE', #181, #181, #123, .T. ) ;
#204 = PERSON_AND_ORGANIZATION ( #234, #216 ) ;
#205 = EDGE_LOOP ( 'NONE', ( #43 ) ) ;
#206 = SECURITY_CLASSIFICATION_LEVEL ( 'unclassified' ) ;
#207 = EDGE_LOOP ( 'NONE', ( #131 ) ) ;
#208 = CARTESIAN_POINT ( 'NONE',  ( -2.126341287940353073E-30, 7.425291281538071275E-32, -6.090083496321635385E-16 ) ) ;
#209 = PLANE ( 'NONE',  #98 ) ;
#210 = DIRECTION ( 'NONE',  ( -3.491481338843133355E-15, 1.224646799147353207E-16, -1.000000000000000000 ) ) ;
#211 = CC_DESIGN_PERSON_AND_ORGANIZATION_ASSIGNMENT ( #204, #149, ( #99 ) ) ;
#212 = DIRECTION ( 'NONE',  ( 0.0000000000000000000, -1.000000000000000000, 0.0000000000000000000 ) ) ;
#213 = FACE_OUTER_BOUND ( 'NONE', #168, .T. ) ;
#214 = APPLICATION_PROTOCOL_DEFINITION ( 'international standard', 'config_control_design', 1994, #199 ) ;
#215 = AXIS2_PLACEMENT_3D ( 'NONE', #86, #210, #134 ) ;
#216 = ORGANIZATION ( 'UNSPECIFIED', 'UNSPECIFIED', '' ) ;
#217 = VERTEX_POINT ( 'NONE', #183 ) ;
#218 =( LENGTH_UNIT ( ) NAMED_UNIT ( * ) SI_UNIT ( .MILLI., .METRE. ) );
#219 = CALENDAR_DATE ( 2021, 1, 11 ) ;
#220 = AXIS2_PLACEMENT_3D ( 'NONE', #84, #235, #8 ) ;
#221 = VERTEX_POINT ( 'NONE', #36 ) ;
#222 = EDGE_CURVE ( 'NONE', #221, #221, #9, .T. ) ;
#223 = CALENDAR_DATE ( 2021, 1, 11 ) ;
#224 = APPROVAL_STATUS ( 'not_yet_approved' ) ;
#225 = EDGE_LOOP ( 'NONE', ( #151 ) ) ;
#226 = PRODUCT_RELATED_PRODUCT_CATEGORY ( 'detail', '', ( #230 ) ) ;
#227 =( GEOMETRIC_REPRESENTATION_CONTEXT ( 3 ) GLOBAL_UNCERTAINTY_ASSIGNED_CONTEXT ( ( #92 ) ) GLOBAL_UNIT_ASSIGNED_CONTEXT ( ( #218, #52, #128 ) ) REPRESENTATION_CONTEXT ( 'NONE', 'WORKASPACE' ) );
#228 = PERSON_AND_ORGANIZATION ( #234, #216 ) ;
#229 = ORIENTED_EDGE ( 'NONE', *, *, #148, .T. ) ;
#230 = PRODUCT ( '57167', '57167', '', ( #35 ) ) ;
#231 = ORIENTED_EDGE ( 'NONE', *, *, #65, .T. ) ;
#232 = AXIS2_PLACEMENT_3D ( 'NONE', #116, #120, #236 ) ;
#233 = DIRECTION ( 'NONE',  ( -3.491481338843133355E-15, 1.224646799147353207E-16, -1.000000000000000000 ) ) ;
#234 = PERSON ( 'UNSPECIFIED', 'UNSPECIFIED', 'UNSPECIFIED', ('UNSPECIFIED'), ('UNSPECIFIED'), ('UNSPECIFIED') ) ;
#235 = DIRECTION ( 'NONE',  ( -3.491481338843133355E-15, 1.219242935835426903E-16, -1.000000000000000000 ) ) ;
#236 = DIRECTION ( 'NONE',  ( -4.275831445896958607E-31, -1.000000000000000000, -1.224646799147353207E-16 ) ) ;
#237 = ADVANCED_FACE ( 'NONE', ( #61 ), #91, .F. ) ;
#238 = DIRECTION ( 'NONE',  ( 3.491481338843133355E-15, -1.224646799147353207E-16, 1.000000000000000000 ) ) ;
#239 = CIRCLE ( 'NONE', #89, 0.5431483474218600227 ) ;
#240 = DIRECTION ( 'NONE',  ( 3.491481338843133355E-15, -1.224646799147353207E-16, 1.000000000000000000 ) ) ;
#241 = COORDINATED_UNIVERSAL_TIME_OFFSET ( 1, 0, .AHEAD. ) ;
#242 = CARTESIAN_POINT ( 'NONE',  ( 1.326762908760390423E-13, 8.998558695971062171E-33, 38.00000000000000000 ) ) ;
#243 = AXIS2_PLACEMENT_3D ( 'NONE', #66, #122, #31 ) ;
ENDSEC;
END-ISO-10303-21;
