ISO-10303-21;
HEADER;
FILE_DESCRIPTION (( 'STEP AP203' ),
    '1' );
FILE_NAME ('57166.step',
    '2021-11-01T09:45:39',
    ( '' ),
    ( '' ),
    'SwSTEP 2.0',
    'SolidWorks 2019',
    '' );
FILE_SCHEMA (( 'CONFIG_CONTROL_DESIGN' ));
ENDSEC;

DATA;
#1 = VERTEX_POINT ( 'NONE', #220 ) ;
#2 = DATE_AND_TIME ( #185, #233 ) ;
#3 = ORIENTED_EDGE ( 'NONE', *, *, #94, .T. ) ;
#4 = CALENDAR_DATE ( 2021, 1, 11 ) ;
#5 = CC_DESIGN_DATE_AND_TIME_ASSIGNMENT ( #112, #201, ( #18 ) ) ;
#6 = ORIENTED_EDGE ( 'NONE', *, *, #54, .F. ) ;
#7 = AXIS2_PLACEMENT_3D ( 'NONE', #122, #208, #237 ) ;
#8 = APPROVAL_PERSON_ORGANIZATION ( #243, #202, #75 ) ;
#9 = COORDINATED_UNIVERSAL_TIME_OFFSET ( 1, 0, .AHEAD. ) ;
#10 = DIRECTION ( 'NONE',  ( -3.491481338843133355E-15, 1.224646799147353207E-16, -1.000000000000000000 ) ) ;
#11 = AXIS2_PLACEMENT_3D ( 'NONE', #14, #68, #34 ) ;
#12 = DIRECTION ( 'NONE',  ( -3.491481338843133355E-15, 1.224646799147353207E-16, -1.000000000000000000 ) ) ;
#13 = ORGANIZATION ( 'UNSPECIFIED', 'UNSPECIFIED', '' ) ;
#14 = CARTESIAN_POINT ( 'NONE',  ( -6.413803915257455362E-31, 2.249659577954771652E-32, -1.836986451539392583E-16 ) ) ;
#15 = CARTESIAN_POINT ( 'NONE',  ( 1.571166602479410325E-14, -5.486593211259421062E-16, 4.500000000000000888 ) ) ;
#16 = CARTESIAN_POINT ( 'NONE',  ( 4.334328128986612940E-14, -1.513569296237655893E-15, 12.41400915069117339 ) ) ;
#17 = AXIS2_PLACEMENT_3D ( 'NONE', #15, #88, #120 ) ;
#18 = PRODUCT_DEFINITION ( 'UNKNOWN', '', #187, #211 ) ;
#19 = PERSON_AND_ORGANIZATION ( #134, #13 ) ;
#20 = CIRCLE ( 'NONE', #90, 1.499999999999997558 ) ;
#21 = APPROVAL_STATUS ( 'not_yet_approved' ) ;
#22 =( NAMED_UNIT ( * ) PLANE_ANGLE_UNIT ( ) SI_UNIT ( $, .RADIAN. ) );
#23 = APPROVAL ( #21, 'UNSPECIFIED' ) ;
#24 = SECURITY_CLASSIFICATION_LEVEL ( 'unclassified' ) ;
#25 = APPROVAL_PERSON_ORGANIZATION ( #116, #35, #49 ) ;
#26 = ADVANCED_FACE ( 'NONE', ( #154, #61 ), #139, .T. ) ;
#27 = PERSON_AND_ORGANIZATION ( #134, #13 ) ;
#28 = EDGE_LOOP ( 'NONE', ( #175 ) ) ;
#29 = EDGE_LOOP ( 'NONE', ( #51 ) ) ;
#30 = AXIS2_PLACEMENT_3D ( 'NONE', #52, #236, #57 ) ;
#31 = EDGE_LOOP ( 'NONE', ( #173 ) ) ;
#32 = EDGE_LOOP ( 'NONE', ( #117 ) ) ;
#33 = DIRECTION ( 'NONE',  ( 3.491481338843133355E-15, -1.224646799147353207E-16, 1.000000000000000000 ) ) ;
#34 = DIRECTION ( 'NONE',  ( -4.275831445896958607E-31, -1.000000000000000000, -1.224646799147353207E-16 ) ) ;
#35 = APPROVAL ( #157, 'UNSPECIFIED' ) ;
#36 = DIRECTION ( 'NONE',  ( 3.491481338843133355E-15, -1.219242935835426903E-16, 1.000000000000000000 ) ) ;
#37 = DIRECTION ( 'NONE',  ( 0.0000000000000000000, 1.000000000000000000, 0.0000000000000000000 ) ) ;
#38 = DIRECTION ( 'NONE',  ( 4.275831445896958607E-31, 1.000000000000000000, 1.224646799147353207E-16 ) ) ;
#39 = TOROIDAL_SURFACE ( 'NONE', #135, 2.449999999999999289, 2.000000000000000000 ) ;
#40 = AXIS2_PLACEMENT_3D ( 'NONE', #203, #224, #58 ) ;
#41 = ADVANCED_FACE ( 'NONE', ( #67 ), #210, .F. ) ;
#42 = PERSON_AND_ORGANIZATION_ROLE ( 'design_owner' ) ;
#43 = CARTESIAN_POINT ( 'NONE',  ( 3.031289553962458898E-14, -1.499999999999996669, 8.681958343122193611 ) ) ;
#44 = PERSON_AND_ORGANIZATION ( #134, #13 ) ;
#45 = CARTESIAN_POINT ( 'NONE',  ( -2.307262256154745572E-30, -0.4499999999999999001, -6.608261744051690290E-16 ) ) ;
#46 = MANIFOLD_SOLID_BREP ( 'Corps-Déplacer/Copier1[2]', #171 ) ;
#47 = EDGE_LOOP ( 'NONE', ( #65 ) ) ;
#48 = CIRCLE ( 'NONE', #204, 0.5181483474218592233 ) ;
#49 = APPROVAL_ROLE ( '' ) ;
#50 = EDGE_LOOP ( 'NONE', ( #194 ) ) ;
#51 = ORIENTED_EDGE ( 'NONE', *, *, #86, .T. ) ;
#52 = CARTESIAN_POINT ( 'NONE',  ( 1.571166602479410325E-14, -5.486593211259421062E-16, 4.500000000000000888 ) ) ;
#53 = DIRECTION ( 'NONE',  ( 4.275831445896958607E-31, 1.000000000000000000, 1.224646799147353207E-16 ) ) ;
#54 = EDGE_CURVE ( 'NONE', #169, #169, #114, .T. ) ;
#55 = CARTESIAN_POINT ( 'NONE',  ( -2.115698878045388685E-30, 7.388127448123456784E-32, -6.059602422925748874E-16 ) ) ;
#56 = PLANE ( 'NONE',  #238 ) ;
#57 = DIRECTION ( 'NONE',  ( 0.0000000000000000000, -1.000000000000000000, 0.0000000000000000000 ) ) ;
#58 = DIRECTION ( 'NONE',  ( 1.000000000000000000, 0.0000000000000000000, 0.0000000000000000000 ) ) ;
#59 = CALENDAR_DATE ( 2021, 1, 11 ) ;
#60 = ADVANCED_FACE ( 'NONE', ( #195 ), #56, .F. ) ;
#61 = FACE_OUTER_BOUND ( 'NONE', #119, .T. ) ;
#62 = EDGE_LOOP ( 'NONE', ( #3 ) ) ;
#63 = PERSON_AND_ORGANIZATION_ROLE ( 'design_supplier' ) ;
#64 = DATE_AND_TIME ( #98, #83 ) ;
#65 = ORIENTED_EDGE ( 'NONE', *, *, #143, .T. ) ;
#66 = AXIS2_PLACEMENT_3D ( 'NONE', #69, #12, #141 ) ;
#67 = FACE_OUTER_BOUND ( 'NONE', #50, .T. ) ;
#68 = DIRECTION ( 'NONE',  ( 3.491481338843133355E-15, -1.224646799147353207E-16, 1.000000000000000000 ) ) ;
#69 = CARTESIAN_POINT ( 'NONE',  ( 1.326762908760390423E-13, -4.653657836759941941E-15, 38.00000000000000000 ) ) ;
#70 = PLANE ( 'NONE',  #183 ) ;
#71 = DIRECTION ( 'NONE',  ( 3.491481338843133355E-15, -1.219242935835426903E-16, 1.000000000000000000 ) ) ;
#72 = VERTEX_POINT ( 'NONE', #76 ) ;
#73 = CALENDAR_DATE ( 2021, 1, 11 ) ;
#74 = AXIS2_PLACEMENT_3D ( 'NONE', #55, #199, #125 ) ;
#75 = APPROVAL_ROLE ( '' ) ;
#76 = CARTESIAN_POINT ( 'NONE',  ( 1.316288464743861212E-13, 1.499999999999993117, 37.69999999999999574 ) ) ;
#77 = COORDINATED_UNIVERSAL_TIME_OFFSET ( 1, 0, .AHEAD. ) ;
#78 = AXIS2_PLACEMENT_3D ( 'NONE', #198, #10, #37 ) ;
#79 = LOCAL_TIME ( 10, 45, 39.00000000000000000, #77 ) ;
#80 = ADVANCED_FACE ( 'NONE', ( #128 ), #214, .F. ) ;
#81 = EDGE_LOOP ( 'NONE', ( #6 ) ) ;
#82 = EDGE_LOOP ( 'NONE', ( #191 ) ) ;
#83 = LOCAL_TIME ( 10, 45, 39.00000000000000000, #9 ) ;
#84 = DATE_AND_TIME ( #4, #123 ) ;
#85 = FACE_OUTER_BOUND ( 'NONE', #31, .T. ) ;
#86 = EDGE_CURVE ( 'NONE', #148, #148, #231, .T. ) ;
#87 = CYLINDRICAL_SURFACE ( 'NONE', #152, 1.499999999999995781 ) ;
#88 = DIRECTION ( 'NONE',  ( 3.491481338843133355E-15, -1.219242935835426903E-16, 1.000000000000000000 ) ) ;
#89 = FACE_OUTER_BOUND ( 'NONE', #225, .T. ) ;
#90 = AXIS2_PLACEMENT_3D ( 'NONE', #165, #212, #240 ) ;
#91 = CARTESIAN_POINT ( 'NONE',  ( 1.571166602479410325E-14, 2.602085213965218136E-15, 4.500000000000000888 ) ) ;
#92 =( LENGTH_UNIT ( ) NAMED_UNIT ( * ) SI_UNIT ( .MILLI., .METRE. ) );
#93 = AXIS2_PLACEMENT_3D ( 'NONE', #16, #71, #146 ) ;
#94 = EDGE_CURVE ( 'NONE', #1, #1, #142, .T. ) ;
#95 = APPLICATION_PROTOCOL_DEFINITION ( 'international standard', 'config_control_design', 1994, #150 ) ;
#96 = SECURITY_CLASSIFICATION ( '', '', #24 ) ;
#97 = DIRECTION ( 'NONE',  ( -4.376313595753167576E-31, -1.000000000000000000, -1.219242935835426903E-16 ) ) ;
#98 = CALENDAR_DATE ( 2021, 1, 11 ) ;
#99 = ADVANCED_FACE ( 'NONE', ( #235, #177 ), #108, .T. ) ;
#100 = PERSON_AND_ORGANIZATION_ROLE ( 'creator' ) ;
#101 = ORIENTED_EDGE ( 'NONE', *, *, #86, .F. ) ;
#102 = EDGE_LOOP ( 'NONE', ( #101 ) ) ;
#103 = EDGE_CURVE ( 'NONE', #72, #72, #20, .T. ) ;
#104 = CARTESIAN_POINT ( 'NONE',  ( 1.326762908760390423E-13, 8.998558695971062171E-33, 38.00000000000000000 ) ) ;
#105 = FACE_OUTER_BOUND ( 'NONE', #102, .T. ) ;
#106 = DIRECTION ( 'NONE',  ( -4.256963957985708889E-31, -1.000000000000000000, -1.219242935835426903E-16 ) ) ;
#107 = FACE_OUTER_BOUND ( 'NONE', #29, .T. ) ;
#108 = CONICAL_SURFACE ( 'NONE', #66, 1.199999999999997957, 0.7853981633974450594 ) ;
#109 = DATE_AND_TIME ( #59, #239 ) ;
#110 = CARTESIAN_POINT ( 'NONE',  ( 1.326762908760390423E-13, 1.199999999999993294, 38.00000000000000000 ) ) ;
#111 = MECHANICAL_CONTEXT ( 'NONE', #150, 'mechanical' ) ;
#112 = DATE_AND_TIME ( #73, #79 ) ;
#113 = VERTEX_POINT ( 'NONE', #132 ) ;
#114 = CIRCLE ( 'NONE', #30, 0.4500000000000000111 ) ;
#115 = CC_DESIGN_PERSON_AND_ORGANIZATION_ASSIGNMENT ( #158, #100, ( #187 ) ) ;
#116 = PERSON_AND_ORGANIZATION ( #134, #13 ) ;
#117 = ORIENTED_EDGE ( 'NONE', *, *, #103, .F. ) ;
#118 = AXIS2_PLACEMENT_3D ( 'NONE', #104, #179, #53 ) ;
#119 = EDGE_LOOP ( 'NONE', ( #156 ) ) ;
#120 = DIRECTION ( 'NONE',  ( 0.0000000000000000000, -1.000000000000000000, 0.0000000000000000000 ) ) ;
#121 = MANIFOLD_SOLID_BREP ( 'Corps-Déplacer/Copier1[1]', #218 ) ;
#122 = CARTESIAN_POINT ( 'NONE',  ( 3.031289553962458898E-14, -1.058541637906918062E-15, 8.681958343122193611 ) ) ;
#123 = LOCAL_TIME ( 10, 45, 39.00000000000000000, #192 ) ;
#124 =( GEOMETRIC_REPRESENTATION_CONTEXT ( 3 ) GLOBAL_UNCERTAINTY_ASSIGNED_CONTEXT ( ( #180 ) ) GLOBAL_UNIT_ASSIGNED_CONTEXT ( ( #92, #22, #129 ) ) REPRESENTATION_CONTEXT ( 'NONE', 'WORKASPACE' ) );
#125 = DIRECTION ( 'NONE',  ( -4.256963957985710640E-31, -1.000000000000000000, -1.219242935835426903E-16 ) ) ;
#126 = PRODUCT_RELATED_PRODUCT_CATEGORY ( 'detail', '', ( #228 ) ) ;
#127 = DIRECTION ( 'NONE',  ( 3.491481338843133355E-15, -1.224646799147353207E-16, 1.000000000000000000 ) ) ;
#128 = FACE_OUTER_BOUND ( 'NONE', #28, .T. ) ;
#129 =( NAMED_UNIT ( * ) SI_UNIT ( $, .STERADIAN. ) SOLID_ANGLE_UNIT ( ) );
#130 = CC_DESIGN_PERSON_AND_ORGANIZATION_ASSIGNMENT ( #27, #189, ( #96 ) ) ;
#131 = PERSON_AND_ORGANIZATION_ROLE ( 'creator' ) ;
#132 = CARTESIAN_POINT ( 'NONE',  ( 1.751898975701934859E-14, -0.5181483474218598895, 5.017638090205027268 ) ) ;
#133 = VERTEX_POINT ( 'NONE', #45 ) ;
#134 = PERSON ( 'UNSPECIFIED', 'UNSPECIFIED', 'UNSPECIFIED', ('UNSPECIFIED'), ('UNSPECIFIED'), ('UNSPECIFIED') ) ;
#135 = AXIS2_PLACEMENT_3D ( 'NONE', #170, #184, #97 ) ;
#136 = EDGE_CURVE ( 'NONE', #133, #133, #222, .T. ) ;
#137 = ORIENTED_EDGE ( 'NONE', *, *, #103, .T. ) ;
#138 = EDGE_LOOP ( 'NONE', ( #229 ) ) ;
#139 = CYLINDRICAL_SURFACE ( 'NONE', #160, 0.4499999999999999556 ) ;
#140 = CARTESIAN_POINT ( 'NONE',  ( 0.0000000000000000000, 0.0000000000000000000, 0.0000000000000000000 ) ) ;
#141 = DIRECTION ( 'NONE',  ( 0.0000000000000000000, 1.000000000000000000, 0.0000000000000000000 ) ) ;
#142 = CIRCLE ( 'NONE', #17, 0.4500000000000000111 ) ;
#143 = EDGE_CURVE ( 'NONE', #113, #113, #48, .T. ) ;
#144 = DIRECTION ( 'NONE',  ( 3.491481338843133355E-15, -1.219242935835426903E-16, 1.000000000000000000 ) ) ;
#145 = APPLICATION_CONTEXT ( 'configuration controlled 3d designs of mechanical parts and assemblies' ) ;
#146 = DIRECTION ( 'NONE',  ( 0.0000000000000000000, -1.000000000000000000, 0.0000000000000000000 ) ) ;
#147 = CC_DESIGN_PERSON_AND_ORGANIZATION_ASSIGNMENT ( #44, #131, ( #18 ) ) ;
#148 = VERTEX_POINT ( 'NONE', #43 ) ;
#149 = COORDINATED_UNIVERSAL_TIME_OFFSET ( 1, 0, .AHEAD. ) ;
#150 = APPLICATION_CONTEXT ( 'configuration controlled 3d designs of mechanical parts and assemblies' ) ;
#151 = ADVANCED_FACE ( 'NONE', ( #89, #105 ), #87, .T. ) ;
#152 = AXIS2_PLACEMENT_3D ( 'NONE', #140, #181, #38 ) ;
#153 = APPROVAL_STATUS ( 'not_yet_approved' ) ;
#154 = FACE_OUTER_BOUND ( 'NONE', #138, .T. ) ;
#155 = SHAPE_DEFINITION_REPRESENTATION ( #159, #234 ) ;
#156 = ORIENTED_EDGE ( 'NONE', *, *, #94, .F. ) ;
#157 = APPROVAL_STATUS ( 'not_yet_approved' ) ;
#158 = PERSON_AND_ORGANIZATION ( #134, #13 ) ;
#159 = PRODUCT_DEFINITION_SHAPE ( 'NONE', 'NONE',  #18 ) ;
#160 = AXIS2_PLACEMENT_3D ( 'NONE', #216, #36, #106 ) ;
#161 = CC_DESIGN_APPROVAL ( #23, ( #18 ) ) ;
#162 = CARTESIAN_POINT ( 'NONE',  ( 1.751898975701934859E-14, -6.117719796061241341E-16, 5.017638090205027268 ) ) ;
#163 = DIRECTION ( 'NONE',  ( -4.275831445896958607E-31, -1.000000000000000000, -1.224646799147353207E-16 ) ) ;
#164 = FACE_OUTER_BOUND ( 'NONE', #62, .T. ) ;
#165 = CARTESIAN_POINT ( 'NONE',  ( 1.316288464743861212E-13, -4.616918432785521081E-15, 37.69999999999999574 ) ) ;
#166 = CC_DESIGN_PERSON_AND_ORGANIZATION_ASSIGNMENT ( #186, #42, ( #228 ) ) ;
#167 = CONICAL_SURFACE ( 'NONE', #93, 2.499999999999996447, 0.2617993877991428020 ) ;
#168 = APPROVAL_ROLE ( '' ) ;
#169 = VERTEX_POINT ( 'NONE', #221 ) ;
#170 = CARTESIAN_POINT ( 'NONE',  ( 1.571166602479410325E-14, -4.336808689942017736E-16, 4.500000000000000888 ) ) ;
#171 = CLOSED_SHELL ( 'NONE', ( #178, #26, #80 ) ) ;
#172 = APPROVAL_DATE_TIME ( #109, #202 ) ;
#173 = ORIENTED_EDGE ( 'NONE', *, *, #54, .T. ) ;
#174 = DATE_TIME_ROLE ( 'classification_date' ) ;
#175 = ORIENTED_EDGE ( 'NONE', *, *, #136, .F. ) ;
#176 = FACE_BOUND ( 'NONE', #47, .T. ) ;
#177 = FACE_BOUND ( 'NONE', #206, .T. ) ;
#178 = ADVANCED_FACE ( 'NONE', ( #164 ), #70, .T. ) ;
#179 = DIRECTION ( 'NONE',  ( -3.491481338843133355E-15, 1.224646799147353207E-16, -1.000000000000000000 ) ) ;
#180 = UNCERTAINTY_MEASURE_WITH_UNIT (LENGTH_MEASURE( 1.000000000000000082E-05 ), #92, 'distance_accuracy_value', 'NONE');
#181 = DIRECTION ( 'NONE',  ( -3.491481338843133355E-15, 1.224646799147353207E-16, -1.000000000000000000 ) ) ;
#182 = DIRECTION ( 'NONE',  ( -4.275831445896958607E-31, -1.000000000000000000, -1.224646799147353207E-16 ) ) ;
#183 = AXIS2_PLACEMENT_3D ( 'NONE', #196, #127, #182 ) ;
#184 = DIRECTION ( 'NONE',  ( 3.491481338843133355E-15, -1.219242935835426903E-16, 1.000000000000000000 ) ) ;
#185 = CALENDAR_DATE ( 2021, 1, 11 ) ;
#186 = PERSON_AND_ORGANIZATION ( #134, #13 ) ;
#187 = PRODUCT_DEFINITION_FORMATION_WITH_SPECIFIED_SOURCE ( 'ANY', '', #228, .NOT_KNOWN. ) ;
#188 = APPLICATION_PROTOCOL_DEFINITION ( 'international standard', 'config_control_design', 1994, #145 ) ;
#189 = PERSON_AND_ORGANIZATION_ROLE ( 'classification_officer' ) ;
#190 = EDGE_CURVE ( 'NONE', #217, #217, #242, .T. ) ;
#191 = ORIENTED_EDGE ( 'NONE', *, *, #143, .F. ) ;
#192 = COORDINATED_UNIVERSAL_TIME_OFFSET ( 1, 0, .AHEAD. ) ;
#193 = ADVANCED_FACE ( 'NONE', ( #176, #107 ), #167, .T. ) ;
#194 = ORIENTED_EDGE ( 'NONE', *, *, #190, .F. ) ;
#195 = FACE_OUTER_BOUND ( 'NONE', #81, .T. ) ;
#196 = CARTESIAN_POINT ( 'NONE',  ( 1.571166602479410325E-14, 2.602085213965218136E-15, 4.500000000000000888 ) ) ;
#197 = DIRECTION ( 'NONE',  ( 0.0000000000000000000, -1.000000000000000000, 0.0000000000000000000 ) ) ;
#198 = CARTESIAN_POINT ( 'NONE',  ( 1.326762908760390423E-13, -4.653657836759941941E-15, 38.00000000000000000 ) ) ;
#199 = DIRECTION ( 'NONE',  ( 3.491481338843133355E-15, -1.219242935835426903E-16, 1.000000000000000000 ) ) ;
#200 = COORDINATED_UNIVERSAL_TIME_OFFSET ( 1, 0, .AHEAD. ) ;
#201 = DATE_TIME_ROLE ( 'creation_date' ) ;
#202 = APPROVAL ( #153, 'UNSPECIFIED' ) ;
#203 = CARTESIAN_POINT ( 'NONE',  ( 0.0000000000000000000, 0.0000000000000000000, 0.0000000000000000000 ) ) ;
#204 = AXIS2_PLACEMENT_3D ( 'NONE', #162, #144, #197 ) ;
#205 = CC_DESIGN_APPROVAL ( #35, ( #96 ) ) ;
#206 = EDGE_LOOP ( 'NONE', ( #207 ) ) ;
#207 = ORIENTED_EDGE ( 'NONE', *, *, #190, .T. ) ;
#208 = DIRECTION ( 'NONE',  ( -3.491481338843133355E-15, 1.219242935835426903E-16, -1.000000000000000000 ) ) ;
#209 = CC_DESIGN_PERSON_AND_ORGANIZATION_ASSIGNMENT ( #227, #63, ( #187 ) ) ;
#210 = PLANE ( 'NONE',  #118 ) ;
#211 = DESIGN_CONTEXT ( 'detailed design', #145, 'design' ) ;
#212 = DIRECTION ( 'NONE',  ( -3.491481338843133355E-15, 1.224646799147353207E-16, -1.000000000000000000 ) ) ;
#213 = CC_DESIGN_SECURITY_CLASSIFICATION ( #96, ( #187 ) ) ;
#214 = PLANE ( 'NONE',  #11 ) ;
#215 = CC_DESIGN_DATE_AND_TIME_ASSIGNMENT ( #84, #174, ( #96 ) ) ;
#216 = CARTESIAN_POINT ( 'NONE',  ( 0.0000000000000000000, 0.0000000000000000000, 0.0000000000000000000 ) ) ;
#217 = VERTEX_POINT ( 'NONE', #110 ) ;
#218 = CLOSED_SHELL ( 'NONE', ( #151, #99, #41, #193, #230, #60 ) ) ;
#219 = CC_DESIGN_APPROVAL ( #202, ( #187 ) ) ;
#220 = CARTESIAN_POINT ( 'NONE',  ( 1.571166602479410325E-14, -0.4500000000000005107, 4.500000000000000888 ) ) ;
#221 = CARTESIAN_POINT ( 'NONE',  ( 1.571166602479410325E-14, -0.4500000000000005107, 4.500000000000000888 ) ) ;
#222 = CIRCLE ( 'NONE', #74, 0.4499999999999999001 ) ;
#223 = APPROVAL_PERSON_ORGANIZATION ( #19, #23, #168 ) ;
#224 = DIRECTION ( 'NONE',  ( 0.0000000000000000000, 0.0000000000000000000, 1.000000000000000000 ) ) ;
#225 = EDGE_LOOP ( 'NONE', ( #137 ) ) ;
#226 = APPROVAL_DATE_TIME ( #64, #35 ) ;
#227 = PERSON_AND_ORGANIZATION ( #134, #13 ) ;
#228 = PRODUCT ( '57166', '57166', '', ( #111 ) ) ;
#229 = ORIENTED_EDGE ( 'NONE', *, *, #136, .T. ) ;
#230 = ADVANCED_FACE ( 'NONE', ( #85, #232 ), #39, .F. ) ;
#231 = CIRCLE ( 'NONE', #7, 1.499999999999995781 ) ;
#232 = FACE_OUTER_BOUND ( 'NONE', #82, .T. ) ;
#233 = LOCAL_TIME ( 10, 45, 39.00000000000000000, #200 ) ;
#234 = ADVANCED_BREP_SHAPE_REPRESENTATION ( '57166', ( #121, #46, #40 ), #124 ) ;
#235 = FACE_OUTER_BOUND ( 'NONE', #32, .T. ) ;
#236 = DIRECTION ( 'NONE',  ( 3.491481338843133355E-15, -1.219242935835426903E-16, 1.000000000000000000 ) ) ;
#237 = DIRECTION ( 'NONE',  ( 0.0000000000000000000, -1.000000000000000000, 0.0000000000000000000 ) ) ;
#238 = AXIS2_PLACEMENT_3D ( 'NONE', #91, #33, #163 ) ;
#239 = LOCAL_TIME ( 10, 45, 39.00000000000000000, #149 ) ;
#240 = DIRECTION ( 'NONE',  ( 0.0000000000000000000, 1.000000000000000000, 0.0000000000000000000 ) ) ;
#241 = APPROVAL_DATE_TIME ( #2, #23 ) ;
#242 = CIRCLE ( 'NONE', #78, 1.199999999999997957 ) ;
#243 = PERSON_AND_ORGANIZATION ( #134, #13 ) ;
ENDSEC;
END-ISO-10303-21;
