ISO-10303-21;
HEADER;
FILE_DESCRIPTION (( 'STEP AP203' ),
    '1' );
FILE_NAME ('57165.step',
    '2021-11-01T09:45:39',
    ( '' ),
    ( '' ),
    'SwSTEP 2.0',
    'SolidWorks 2019',
    '' );
FILE_SCHEMA (( 'CONFIG_CONTROL_DESIGN' ));
ENDSEC;

DATA;
#1 = VERTEX_POINT ( 'NONE', #202 ) ;
#2 = CALENDAR_DATE ( 2021, 1, 11 ) ;
#3 = AXIS2_PLACEMENT_3D ( 'NONE', #111, #48, #123 ) ;
#4 = MANIFOLD_SOLID_BREP ( 'Corps-Déplacer/Copier1[1]', #22 ) ;
#5 = ORIENTED_EDGE ( 'NONE', *, *, #120, .F. ) ;
#6 = COORDINATED_UNIVERSAL_TIME_OFFSET ( 1, 0, .AHEAD. ) ;
#7 = ORIENTED_EDGE ( 'NONE', *, *, #109, .T. ) ;
#8 = APPROVAL_PERSON_ORGANIZATION ( #171, #113, #227 ) ;
#9 = DIRECTION ( 'NONE',  ( -3.491481338843133355E-15, 1.224646799147353207E-16, -1.000000000000000000 ) ) ;
#10 = CARTESIAN_POINT ( 'NONE',  ( 6.284666409917638462E-15, -2.194637284503767636E-16, 1.799999999999999600 ) ) ;
#11 = PRODUCT_DEFINITION ( 'UNKNOWN', '', #222, #236 ) ;
#12 = CARTESIAN_POINT ( 'NONE',  ( 1.326762908760390423E-13, -4.653657836759941941E-15, 38.00000000000000000 ) ) ;
#13 = AXIS2_PLACEMENT_3D ( 'NONE', #164, #71, #126 ) ;
#14 = FACE_OUTER_BOUND ( 'NONE', #233, .T. ) ;
#15 = CARTESIAN_POINT ( 'NONE',  ( 6.284666409917638462E-15, -5.204170427930434102E-16, 1.799999999999999600 ) ) ;
#16 = CC_DESIGN_DATE_AND_TIME_ASSIGNMENT ( #60, #135, ( #34 ) ) ;
#17 = PERSON_AND_ORGANIZATION ( #173, #57 ) ;
#18 = VERTEX_POINT ( 'NONE', #91 ) ;
#19 = FACE_OUTER_BOUND ( 'NONE', #47, .T. ) ;
#20 = VERTEX_POINT ( 'NONE', #242 ) ;
#21 = PERSON_AND_ORGANIZATION_ROLE ( 'creator' ) ;
#22 = CLOSED_SHELL ( 'NONE', ( #184, #102, #150, #192, #24, #141 ) ) ;
#23 = EDGE_LOOP ( 'NONE', ( #232 ) ) ;
#24 = ADVANCED_FACE ( 'NONE', ( #209, #44 ), #225, .F. ) ;
#25 = AXIS2_PLACEMENT_3D ( 'NONE', #103, #75, #86 ) ;
#26 = EDGE_LOOP ( 'NONE', ( #80 ) ) ;
#27 = DIRECTION ( 'NONE',  ( 0.0000000000000000000, 1.000000000000000000, 0.0000000000000000000 ) ) ;
#28 = CC_DESIGN_APPROVAL ( #134, ( #11 ) ) ;
#29 = DIRECTION ( 'NONE',  ( -3.491481338843133355E-15, 1.224646799147353207E-16, -1.000000000000000000 ) ) ;
#30 = ADVANCED_FACE ( 'NONE', ( #50, #197 ), #125, .T. ) ;
#31 = CARTESIAN_POINT ( 'NONE',  ( -6.413803915257455362E-31, 2.249659577954771652E-32, -1.836986451539392583E-16 ) ) ;
#32 = PLANE ( 'NONE',  #121 ) ;
#33 = APPLICATION_CONTEXT ( 'configuration controlled 3d designs of mechanical parts and assemblies' ) ;
#34 = SECURITY_CLASSIFICATION ( '', '', #191 ) ;
#35 = DIRECTION ( 'NONE',  ( -3.491481338843133355E-15, 1.224646799147353207E-16, -1.000000000000000000 ) ) ;
#36 = CALENDAR_DATE ( 2021, 1, 11 ) ;
#37 = CARTESIAN_POINT ( 'NONE',  ( 3.424204131874570438E-14, -1.195749395020358986E-15, 9.807310420880396507 ) ) ;
#38 = APPROVAL_STATUS ( 'not_yet_approved' ) ;
#39 = ADVANCED_FACE ( 'NONE', ( #217 ), #175, .F. ) ;
#40 = PERSON_AND_ORGANIZATION_ROLE ( 'design_owner' ) ;
#41 = CIRCLE ( 'NONE', #61, 1.199999999999997957 ) ;
#42 = ADVANCED_FACE ( 'NONE', ( #239 ), #32, .T. ) ;
#43 = PERSON_AND_ORGANIZATION_ROLE ( 'classification_officer' ) ;
#44 = FACE_OUTER_BOUND ( 'NONE', #65, .T. ) ;
#45 = EDGE_LOOP ( 'NONE', ( #235 ) ) ;
#46 = AXIS2_PLACEMENT_3D ( 'NONE', #162, #142, #219 ) ;
#47 = EDGE_LOOP ( 'NONE', ( #99 ) ) ;
#48 = DIRECTION ( 'NONE',  ( 3.491481338843133355E-15, -1.219242935835426903E-16, 1.000000000000000000 ) ) ;
#49 = DIRECTION ( 'NONE',  ( 0.0000000000000000000, -1.000000000000000000, 0.0000000000000000000 ) ) ;
#50 = FACE_OUTER_BOUND ( 'NONE', #96, .T. ) ;
#51 = CARTESIAN_POINT ( 'NONE',  ( 6.284666409917638462E-15, -5.204170427930434102E-16, 1.799999999999999600 ) ) ;
#52 = CARTESIAN_POINT ( 'NONE',  ( 0.0000000000000000000, 0.0000000000000000000, 0.0000000000000000000 ) ) ;
#53 =( LENGTH_UNIT ( ) NAMED_UNIT ( * ) SI_UNIT ( .MILLI., .METRE. ) );
#54 =( NAMED_UNIT ( * ) SI_UNIT ( $, .STERADIAN. ) SOLID_ANGLE_UNIT ( ) );
#55 = EDGE_CURVE ( 'NONE', #183, #183, #207, .T. ) ;
#56 = APPROVAL_ROLE ( '' ) ;
#57 = ORGANIZATION ( 'UNSPECIFIED', 'UNSPECIFIED', '' ) ;
#58 = CC_DESIGN_PERSON_AND_ORGANIZATION_ASSIGNMENT ( #208, #43, ( #34 ) ) ;
#59 = COORDINATED_UNIVERSAL_TIME_OFFSET ( 1, 0, .AHEAD. ) ;
#60 = DATE_AND_TIME ( #155, #140 ) ;
#61 = AXIS2_PLACEMENT_3D ( 'NONE', #12, #72, #85 ) ;
#62 = CIRCLE ( 'NONE', #46, 0.4931483474218599228 ) ;
#63 = EDGE_LOOP ( 'NONE', ( #158 ) ) ;
#64 = APPROVAL_DATE_TIME ( #229, #113 ) ;
#65 = EDGE_LOOP ( 'NONE', ( #231 ) ) ;
#66 = SHAPE_DEFINITION_REPRESENTATION ( #124, #220 ) ;
#67 = ORIENTED_EDGE ( 'NONE', *, *, #188, .T. ) ;
#68 = PERSON_AND_ORGANIZATION_ROLE ( 'design_supplier' ) ;
#69 = EDGE_LOOP ( 'NONE', ( #7 ) ) ;
#70 = AXIS2_PLACEMENT_3D ( 'NONE', #31, #138, #87 ) ;
#71 = DIRECTION ( 'NONE',  ( -3.491481338843133355E-15, 1.219242935835426903E-16, -1.000000000000000000 ) ) ;
#72 = DIRECTION ( 'NONE',  ( -3.491481338843133355E-15, 1.224646799147353207E-16, -1.000000000000000000 ) ) ;
#73 = CC_DESIGN_SECURITY_CLASSIFICATION ( #34, ( #222 ) ) ;
#74 = CARTESIAN_POINT ( 'NONE',  ( 1.326762908760390423E-13, -4.653657836759941941E-15, 38.00000000000000000 ) ) ;
#75 = DIRECTION ( 'NONE',  ( 3.491481338843133355E-15, -1.219242935835426903E-16, 1.000000000000000000 ) ) ;
#76 = APPROVAL_STATUS ( 'not_yet_approved' ) ;
#77 = CIRCLE ( 'NONE', #3, 0.4250000000000000444 ) ;
#78 = DATE_AND_TIME ( #2, #213 ) ;
#79 = PERSON_AND_ORGANIZATION ( #173, #57 ) ;
#80 = ORIENTED_EDGE ( 'NONE', *, *, #55, .T. ) ;
#81 = ORIENTED_EDGE ( 'NONE', *, *, #83, .F. ) ;
#82 = CC_DESIGN_APPROVAL ( #144, ( #222 ) ) ;
#83 = EDGE_CURVE ( 'NONE', #153, #153, #98, .T. ) ;
#84 = DIRECTION ( 'NONE',  ( 0.0000000000000000000, 1.000000000000000000, 0.0000000000000000000 ) ) ;
#85 = DIRECTION ( 'NONE',  ( 0.0000000000000000000, 1.000000000000000000, 0.0000000000000000000 ) ) ;
#86 = DIRECTION ( 'NONE',  ( -4.256963957985708889E-31, -1.000000000000000000, -1.219242935835426903E-16 ) ) ;
#87 = DIRECTION ( 'NONE',  ( -4.275831445896958607E-31, -1.000000000000000000, -1.224646799147353207E-16 ) ) ;
#88 = DIRECTION ( 'NONE',  ( 4.275831445896958607E-31, 1.000000000000000000, 1.224646799147353207E-16 ) ) ;
#89 = PERSON_AND_ORGANIZATION ( #173, #57 ) ;
#90 = VERTEX_POINT ( 'NONE', #205 ) ;
#91 = CARTESIAN_POINT ( 'NONE',  ( 2.121165556850415765E-14, -1.499999999999996225, 6.075259613311415841 ) ) ;
#92 =( NAMED_UNIT ( * ) PLANE_ANGLE_UNIT ( ) SI_UNIT ( $, .RADIAN. ) );
#93 = CIRCLE ( 'NONE', #13, 1.499999999999995559 ) ;
#94 = DATE_TIME_ROLE ( 'creation_date' ) ;
#95 = EDGE_LOOP ( 'NONE', ( #157 ) ) ;
#96 = EDGE_LOOP ( 'NONE', ( #67 ) ) ;
#97 = EDGE_CURVE ( 'NONE', #18, #18, #93, .T. ) ;
#98 = CIRCLE ( 'NONE', #189, 0.4249999999999998224 ) ;
#99 = ORIENTED_EDGE ( 'NONE', *, *, #97, .T. ) ;
#100 = ORIENTED_EDGE ( 'NONE', *, *, #83, .T. ) ;
#101 = PRODUCT ( '57165', '57165', '', ( #149 ) ) ;
#102 = ADVANCED_FACE ( 'NONE', ( #106, #137 ), #104, .T. ) ;
#103 = CARTESIAN_POINT ( 'NONE',  ( 0.0000000000000000000, 0.0000000000000000000, 0.0000000000000000000 ) ) ;
#104 = CONICAL_SURFACE ( 'NONE', #146, 1.199999999999997957, 0.7853981633974450594 ) ;
#105 = LOCAL_TIME ( 10, 45, 39.00000000000000000, #6 ) ;
#106 = FACE_OUTER_BOUND ( 'NONE', #45, .T. ) ;
#107 = APPLICATION_CONTEXT ( 'configuration controlled 3d designs of mechanical parts and assemblies' ) ;
#108 = DIRECTION ( 'NONE',  ( -4.275831445896958607E-31, -1.000000000000000000, -1.224646799147353207E-16 ) ) ;
#109 = EDGE_CURVE ( 'NONE', #1, #1, #132, .T. ) ;
#110 = CARTESIAN_POINT ( 'NONE',  ( 6.284666409917638462E-15, -2.194637284503767636E-16, 1.799999999999999600 ) ) ;
#111 = CARTESIAN_POINT ( 'NONE',  ( -2.105056468150424647E-30, 7.350963614708841197E-32, -6.029121349529863349E-16 ) ) ;
#112 = CALENDAR_DATE ( 2021, 1, 11 ) ;
#113 = APPROVAL ( #193, 'UNSPECIFIED' ) ;
#114 = MANIFOLD_SOLID_BREP ( 'Corps-Déplacer/Copier1[2]', #139 ) ;
#115 = COORDINATED_UNIVERSAL_TIME_OFFSET ( 1, 0, .AHEAD. ) ;
#116 = DIRECTION ( 'NONE',  ( 1.000000000000000000, 0.0000000000000000000, 0.0000000000000000000 ) ) ;
#117 =( GEOMETRIC_REPRESENTATION_CONTEXT ( 3 ) GLOBAL_UNCERTAINTY_ASSIGNED_CONTEXT ( ( #200 ) ) GLOBAL_UNIT_ASSIGNED_CONTEXT ( ( #53, #92, #54 ) ) REPRESENTATION_CONTEXT ( 'NONE', 'WORKASPACE' ) );
#118 = PERSON_AND_ORGANIZATION_ROLE ( 'creator' ) ;
#119 = EDGE_LOOP ( 'NONE', ( #159 ) ) ;
#120 = EDGE_CURVE ( 'NONE', #20, #20, #41, .T. ) ;
#121 = AXIS2_PLACEMENT_3D ( 'NONE', #15, #178, #108 ) ;
#122 = APPROVAL_PERSON_ORGANIZATION ( #187, #134, #56 ) ;
#123 = DIRECTION ( 'NONE',  ( -4.256963957985707137E-31, -1.000000000000000000, -1.219242935835427396E-16 ) ) ;
#124 = PRODUCT_DEFINITION_SHAPE ( 'NONE', 'NONE',  #11 ) ;
#125 = CYLINDRICAL_SURFACE ( 'NONE', #25, 0.4249999999999999334 ) ;
#126 = DIRECTION ( 'NONE',  ( 0.0000000000000000000, -1.000000000000000000, 0.0000000000000000000 ) ) ;
#127 = DIRECTION ( 'NONE',  ( -4.316975922738838061E-31, -1.000000000000000000, -1.219242935835426903E-16 ) ) ;
#128 = CYLINDRICAL_SURFACE ( 'NONE', #212, 1.499999999999995559 ) ;
#129 = AXIS2_PLACEMENT_3D ( 'NONE', #37, #223, #243 ) ;
#130 = EDGE_CURVE ( 'NONE', #90, #90, #62, .T. ) ;
#131 = APPLICATION_PROTOCOL_DEFINITION ( 'international standard', 'config_control_design', 1994, #33 ) ;
#132 = CIRCLE ( 'NONE', #151, 0.4249999999999998224 ) ;
#133 = CARTESIAN_POINT ( 'NONE',  ( 1.316288464743861212E-13, 1.499999999999993117, 37.69999999999999574 ) ) ;
#134 = APPROVAL ( #38, 'UNSPECIFIED' ) ;
#135 = DATE_TIME_ROLE ( 'classification_date' ) ;
#136 = CARTESIAN_POINT ( 'NONE',  ( 1.326762908760390423E-13, 8.998558695971062171E-33, 38.00000000000000000 ) ) ;
#137 = FACE_BOUND ( 'NONE', #23, .T. ) ;
#138 = DIRECTION ( 'NONE',  ( 3.491481338843133355E-15, -1.224646799147353207E-16, 1.000000000000000000 ) ) ;
#139 = CLOSED_SHELL ( 'NONE', ( #42, #30, #39 ) ) ;
#140 = LOCAL_TIME ( 10, 45, 39.00000000000000000, #59 ) ;
#141 = ADVANCED_FACE ( 'NONE', ( #237 ), #161, .F. ) ;
#142 = DIRECTION ( 'NONE',  ( 3.491481338843133355E-15, -1.219242935835426903E-16, 1.000000000000000000 ) ) ;
#143 = FACE_OUTER_BOUND ( 'NONE', #119, .T. ) ;
#144 = APPROVAL ( #76, 'UNSPECIFIED' ) ;
#145 = APPROVAL_ROLE ( '' ) ;
#146 = AXIS2_PLACEMENT_3D ( 'NONE', #74, #216, #27 ) ;
#147 = APPLICATION_PROTOCOL_DEFINITION ( 'international standard', 'config_control_design', 1994, #107 ) ;
#148 = CARTESIAN_POINT ( 'NONE',  ( 6.284666409917638462E-15, -0.4250000000000000444, 1.799999999999999600 ) ) ;
#149 = MECHANICAL_CONTEXT ( 'NONE', #107, 'mechanical' ) ;
#150 = ADVANCED_FACE ( 'NONE', ( #14 ), #238, .F. ) ;
#151 = AXIS2_PLACEMENT_3D ( 'NONE', #10, #221, #240 ) ;
#152 = LOCAL_TIME ( 10, 45, 39.00000000000000000, #199 ) ;
#153 = VERTEX_POINT ( 'NONE', #148 ) ;
#154 = CC_DESIGN_PERSON_AND_ORGANIZATION_ASSIGNMENT ( #156, #68, ( #222 ) ) ;
#155 = CALENDAR_DATE ( 2021, 1, 11 ) ;
#156 = PERSON_AND_ORGANIZATION ( #173, #57 ) ;
#157 = ORIENTED_EDGE ( 'NONE', *, *, #130, .T. ) ;
#158 = ORIENTED_EDGE ( 'NONE', *, *, #109, .F. ) ;
#159 = ORIENTED_EDGE ( 'NONE', *, *, #97, .F. ) ;
#160 = FACE_BOUND ( 'NONE', #95, .T. ) ;
#161 = PLANE ( 'NONE',  #180 ) ;
#162 = CARTESIAN_POINT ( 'NONE',  ( 8.091990142142894843E-15, -2.825763869305590873E-16, 2.317638090205028423 ) ) ;
#163 = FACE_OUTER_BOUND ( 'NONE', #26, .T. ) ;
#164 = CARTESIAN_POINT ( 'NONE',  ( 2.121165556850415765E-14, -7.407217366896211554E-16, 6.075259613311415841 ) ) ;
#165 = AXIS2_PLACEMENT_3D ( 'NONE', #52, #201, #116 ) ;
#166 = PERSON_AND_ORGANIZATION ( #173, #57 ) ;
#167 = ORIENTED_EDGE ( 'NONE', *, *, #188, .F. ) ;
#168 = APPROVAL_DATE_TIME ( #182, #144 ) ;
#169 = AXIS2_PLACEMENT_3D ( 'NONE', #196, #218, #127 ) ;
#170 = LOCAL_TIME ( 10, 45, 39.00000000000000000, #186 ) ;
#171 = PERSON_AND_ORGANIZATION ( #173, #57 ) ;
#172 = EDGE_LOOP ( 'NONE', ( #81 ) ) ;
#173 = PERSON ( 'UNSPECIFIED', 'UNSPECIFIED', 'UNSPECIFIED', ('UNSPECIFIED'), ('UNSPECIFIED'), ('UNSPECIFIED') ) ;
#174 = AXIS2_PLACEMENT_3D ( 'NONE', #136, #9, #181 ) ;
#175 = PLANE ( 'NONE',  #70 ) ;
#176 = CC_DESIGN_PERSON_AND_ORGANIZATION_ASSIGNMENT ( #17, #40, ( #101 ) ) ;
#177 = CARTESIAN_POINT ( 'NONE',  ( 1.316288464743861212E-13, -4.616918432785521081E-15, 37.69999999999999574 ) ) ;
#178 = DIRECTION ( 'NONE',  ( 3.491481338843133355E-15, -1.224646799147353207E-16, 1.000000000000000000 ) ) ;
#179 = DIRECTION ( 'NONE',  ( 3.491481338843133355E-15, -1.224646799147353207E-16, 1.000000000000000000 ) ) ;
#180 = AXIS2_PLACEMENT_3D ( 'NONE', #51, #179, #241 ) ;
#181 = DIRECTION ( 'NONE',  ( 4.275831445896958607E-31, 1.000000000000000000, 1.224646799147353207E-16 ) ) ;
#182 = DATE_AND_TIME ( #36, #152 ) ;
#183 = VERTEX_POINT ( 'NONE', #133 ) ;
#184 = ADVANCED_FACE ( 'NONE', ( #163, #143 ), #128, .T. ) ;
#185 = APPROVAL_DATE_TIME ( #204, #134 ) ;
#186 = COORDINATED_UNIVERSAL_TIME_OFFSET ( 1, 0, .AHEAD. ) ;
#187 = PERSON_AND_ORGANIZATION ( #173, #57 ) ;
#188 = EDGE_CURVE ( 'NONE', #226, #226, #77, .T. ) ;
#189 = AXIS2_PLACEMENT_3D ( 'NONE', #110, #194, #49 ) ;
#190 = CC_DESIGN_APPROVAL ( #113, ( #34 ) ) ;
#191 = SECURITY_CLASSIFICATION_LEVEL ( 'unclassified' ) ;
#192 = ADVANCED_FACE ( 'NONE', ( #160, #19 ), #234, .T. ) ;
#193 = APPROVAL_STATUS ( 'not_yet_approved' ) ;
#194 = DIRECTION ( 'NONE',  ( 3.491481338843133355E-15, -1.219242935835426903E-16, 1.000000000000000000 ) ) ;
#195 = CC_DESIGN_PERSON_AND_ORGANIZATION_ASSIGNMENT ( #89, #21, ( #11 ) ) ;
#196 = CARTESIAN_POINT ( 'NONE',  ( 6.284666409917637673E-15, -4.336808689942017736E-16, 1.799999999999999378 ) ) ;
#197 = FACE_OUTER_BOUND ( 'NONE', #63, .T. ) ;
#198 = CARTESIAN_POINT ( 'NONE',  ( 0.0000000000000000000, 0.0000000000000000000, 0.0000000000000000000 ) ) ;
#199 = COORDINATED_UNIVERSAL_TIME_OFFSET ( 1, 0, .AHEAD. ) ;
#200 = UNCERTAINTY_MEASURE_WITH_UNIT (LENGTH_MEASURE( 1.000000000000000082E-05 ), #53, 'distance_accuracy_value', 'NONE');
#201 = DIRECTION ( 'NONE',  ( 0.0000000000000000000, 0.0000000000000000000, 1.000000000000000000 ) ) ;
#202 = CARTESIAN_POINT ( 'NONE',  ( 6.284666409917638462E-15, -0.4250000000000000444, 1.799999999999999600 ) ) ;
#203 = AXIS2_PLACEMENT_3D ( 'NONE', #177, #29, #84 ) ;
#204 = DATE_AND_TIME ( #112, #170 ) ;
#205 = CARTESIAN_POINT ( 'NONE',  ( 8.091990142142894843E-15, -0.4931483474218602558, 2.317638090205028423 ) ) ;
#206 = EDGE_LOOP ( 'NONE', ( #100 ) ) ;
#207 = CIRCLE ( 'NONE', #203, 1.499999999999997558 ) ;
#208 = PERSON_AND_ORGANIZATION ( #173, #57 ) ;
#209 = FACE_OUTER_BOUND ( 'NONE', #206, .T. ) ;
#210 = CC_DESIGN_PERSON_AND_ORGANIZATION_ASSIGNMENT ( #79, #118, ( #222 ) ) ;
#211 = EDGE_LOOP ( 'NONE', ( #167 ) ) ;
#212 = AXIS2_PLACEMENT_3D ( 'NONE', #198, #35, #88 ) ;
#213 = LOCAL_TIME ( 10, 45, 39.00000000000000000, #115 ) ;
#214 = CALENDAR_DATE ( 2021, 1, 11 ) ;
#215 = PRODUCT_RELATED_PRODUCT_CATEGORY ( 'detail', '', ( #101 ) ) ;
#216 = DIRECTION ( 'NONE',  ( -3.491481338843133355E-15, 1.224646799147353207E-16, -1.000000000000000000 ) ) ;
#217 = FACE_OUTER_BOUND ( 'NONE', #211, .T. ) ;
#218 = DIRECTION ( 'NONE',  ( 3.491481338843133355E-15, -1.219242935835426903E-16, 1.000000000000000000 ) ) ;
#219 = DIRECTION ( 'NONE',  ( 0.0000000000000000000, -1.000000000000000000, 0.0000000000000000000 ) ) ;
#220 = ADVANCED_BREP_SHAPE_REPRESENTATION ( '57165', ( #4, #114, #165 ), #117 ) ;
#221 = DIRECTION ( 'NONE',  ( 3.491481338843133355E-15, -1.219242935835426903E-16, 1.000000000000000000 ) ) ;
#222 = PRODUCT_DEFINITION_FORMATION_WITH_SPECIFIED_SOURCE ( 'ANY', '', #101, .NOT_KNOWN. ) ;
#223 = DIRECTION ( 'NONE',  ( 3.491481338843133355E-15, -1.219242935835426903E-16, 1.000000000000000000 ) ) ;
#224 = CARTESIAN_POINT ( 'NONE',  ( -2.285977436364817496E-30, -0.4250000000000000444, -6.547299597259920227E-16 ) ) ;
#225 = TOROIDAL_SURFACE ( 'NONE', #169, 2.425000000000000711, 2.000000000000000444 ) ;
#226 = VERTEX_POINT ( 'NONE', #224 ) ;
#227 = APPROVAL_ROLE ( '' ) ;
#228 = APPROVAL_PERSON_ORGANIZATION ( #166, #144, #145 ) ;
#229 = DATE_AND_TIME ( #214, #105 ) ;
#230 = CC_DESIGN_DATE_AND_TIME_ASSIGNMENT ( #78, #94, ( #11 ) ) ;
#231 = ORIENTED_EDGE ( 'NONE', *, *, #130, .F. ) ;
#232 = ORIENTED_EDGE ( 'NONE', *, *, #120, .T. ) ;
#233 = EDGE_LOOP ( 'NONE', ( #5 ) ) ;
#234 = CONICAL_SURFACE ( 'NONE', #129, 2.499999999999996447, 0.2617993877991428020 ) ;
#235 = ORIENTED_EDGE ( 'NONE', *, *, #55, .F. ) ;
#236 = DESIGN_CONTEXT ( 'detailed design', #33, 'design' ) ;
#237 = FACE_OUTER_BOUND ( 'NONE', #172, .T. ) ;
#238 = PLANE ( 'NONE',  #174 ) ;
#239 = FACE_OUTER_BOUND ( 'NONE', #69, .T. ) ;
#240 = DIRECTION ( 'NONE',  ( 0.0000000000000000000, -1.000000000000000000, 0.0000000000000000000 ) ) ;
#241 = DIRECTION ( 'NONE',  ( -4.275831445896958607E-31, -1.000000000000000000, -1.224646799147353207E-16 ) ) ;
#242 = CARTESIAN_POINT ( 'NONE',  ( 1.326762908760390423E-13, 1.199999999999993294, 38.00000000000000000 ) ) ;
#243 = DIRECTION ( 'NONE',  ( 0.0000000000000000000, -1.000000000000000000, 0.0000000000000000000 ) ) ;
ENDSEC;
END-ISO-10303-21;
