ISO-10303-21;
HEADER;
FILE_DESCRIPTION (( 'STEP AP203' ),
    '1' );
FILE_NAME ('57164.step',
    '2021-11-01T09:45:38',
    ( '' ),
    ( '' ),
    'SwSTEP 2.0',
    'SolidWorks 2019',
    '' );
FILE_SCHEMA (( 'CONFIG_CONTROL_DESIGN' ));
ENDSEC;

DATA;
#1 = FACE_OUTER_BOUND ( 'NONE', #205, .T. ) ;
#2 = CLOSED_SHELL ( 'NONE', ( #94, #110, #54, #122, #10, #241 ) ) ;
#3 = EDGE_CURVE ( 'NONE', #47, #47, #45, .T. ) ;
#4 = CARTESIAN_POINT ( 'NONE',  ( 1.396592535537253342E-14, -4.336808689942017736E-16, 4.000000000000000000 ) ) ;
#5 = VERTEX_POINT ( 'NONE', #87 ) ;
#6 = CARTESIAN_POINT ( 'NONE',  ( -2.264692616574888369E-30, -0.3999999999999999667, -6.486337450468147205E-16 ) ) ;
#7 = DATE_AND_TIME ( #86, #28 ) ;
#8 = APPROVAL_STATUS ( 'not_yet_approved' ) ;
#9 = PERSON_AND_ORGANIZATION ( #171, #40 ) ;
#10 = ADVANCED_FACE ( 'NONE', ( #114, #36 ), #27, .F. ) ;
#11 = ORIENTED_EDGE ( 'NONE', *, *, #37, .F. ) ;
#12 = MANIFOLD_SOLID_BREP ( 'Corps-Déplacer/Copier1[1]', #2 ) ;
#13 = ORIENTED_EDGE ( 'NONE', *, *, #37, .T. ) ;
#14 = CC_DESIGN_PERSON_AND_ORGANIZATION_ASSIGNMENT ( #111, #92, ( #168 ) ) ;
#15 = SECURITY_CLASSIFICATION_LEVEL ( 'unclassified' ) ;
#16 = EDGE_CURVE ( 'NONE', #43, #43, #145, .T. ) ;
#17 = DIRECTION ( 'NONE',  ( -3.491481338843133355E-15, 1.224646799147353207E-16, -1.000000000000000000 ) ) ;
#18 = CC_DESIGN_DATE_AND_TIME_ASSIGNMENT ( #26, #104, ( #187 ) ) ;
#19 = CYLINDRICAL_SURFACE ( 'NONE', #173, 0.3999999999999998557 ) ;
#20 = CARTESIAN_POINT ( 'NONE',  ( 2.921867415771509238E-14, -1.020330874031683293E-15, 8.368560883500641978 ) ) ;
#21 = CARTESIAN_POINT ( 'NONE',  ( 1.396592535537253342E-14, 1.124819836996387869E-32, 4.000000000000000000 ) ) ;
#22 = FACE_OUTER_BOUND ( 'NONE', #166, .T. ) ;
#23 = PERSON_AND_ORGANIZATION_ROLE ( 'design_owner' ) ;
#24 = APPROVAL ( #186, 'UNSPECIFIED' ) ;
#25 = CIRCLE ( 'NONE', #161, 0.3999999999999998002 ) ;
#26 = DATE_AND_TIME ( #216, #103 ) ;
#27 = TOROIDAL_SURFACE ( 'NONE', #33, 2.400000000000000355, 2.000000000000000000 ) ;
#28 = LOCAL_TIME ( 10, 45, 38.00000000000000000, #215 ) ;
#29 = ADVANCED_FACE ( 'NONE', ( #118, #193 ), #19, .T. ) ;
#30 = CALENDAR_DATE ( 2021, 1, 11 ) ;
#31 = EDGE_LOOP ( 'NONE', ( #163 ) ) ;
#32 = EDGE_LOOP ( 'NONE', ( #147 ) ) ;
#33 = AXIS2_PLACEMENT_3D ( 'NONE', #4, #96, #98 ) ;
#34 = FACE_OUTER_BOUND ( 'NONE', #240, .T. ) ;
#35 = AXIS2_PLACEMENT_3D ( 'NONE', #67, #141, #105 ) ;
#36 = FACE_OUTER_BOUND ( 'NONE', #204, .T. ) ;
#37 = EDGE_CURVE ( 'NONE', #126, #126, #238, .T. ) ;
#38 = DIRECTION ( 'NONE',  ( 3.491481338843133355E-15, -1.219242935835426903E-16, 1.000000000000000000 ) ) ;
#39 = DIRECTION ( 'NONE',  ( 4.275831445896958607E-31, 1.000000000000000000, 1.224646799147353207E-16 ) ) ;
#40 = ORGANIZATION ( 'UNSPECIFIED', 'UNSPECIFIED', '' ) ;
#41 =( LENGTH_UNIT ( ) NAMED_UNIT ( * ) SI_UNIT ( .MILLI., .METRE. ) );
#42 = FACE_OUTER_BOUND ( 'NONE', #91, .T. ) ;
#43 = VERTEX_POINT ( 'NONE', #162 ) ;
#44 = DIRECTION ( 'NONE',  ( -4.275831445896958607E-31, -1.000000000000000000, -1.224646799147353207E-16 ) ) ;
#45 = CIRCLE ( 'NONE', #116, 0.3999999999999998002 ) ;
#46 = LOCAL_TIME ( 10, 45, 38.00000000000000000, #160 ) ;
#47 = VERTEX_POINT ( 'NONE', #66 ) ;
#48 = DATE_AND_TIME ( #49, #46 ) ;
#49 = CALENDAR_DATE ( 2021, 1, 11 ) ;
#50 = CIRCLE ( 'NONE', #232, 0.3999999999999999667 ) ;
#51 = APPROVAL_DATE_TIME ( #185, #24 ) ;
#52 = ORIENTED_EDGE ( 'NONE', *, *, #3, .T. ) ;
#53 = LOCAL_TIME ( 10, 45, 38.00000000000000000, #164 ) ;
#54 = ADVANCED_FACE ( 'NONE', ( #1 ), #137, .F. ) ;
#55 = ORIENTED_EDGE ( 'NONE', *, *, #192, .F. ) ;
#56 = DIRECTION ( 'NONE',  ( 3.491481338843133355E-15, -1.219242935835426903E-16, 1.000000000000000000 ) ) ;
#57 = DIRECTION ( 'NONE',  ( -3.491481338843133355E-15, 1.224646799147353207E-16, -1.000000000000000000 ) ) ;
#58 = AXIS2_PLACEMENT_3D ( 'NONE', #21, #225, #169 ) ;
#59 = DIRECTION ( 'NONE',  ( 0.0000000000000000000, -1.000000000000000000, 0.0000000000000000000 ) ) ;
#60 = CARTESIAN_POINT ( 'NONE',  ( 1.326762908760390423E-13, -4.653657836759941941E-15, 38.00000000000000000 ) ) ;
#61 = EDGE_CURVE ( 'NONE', #5, #5, #143, .T. ) ;
#62 = DIRECTION ( 'NONE',  ( 3.491481338843133355E-15, -1.224646799147353207E-16, 1.000000000000000000 ) ) ;
#63 = AXIS2_PLACEMENT_3D ( 'NONE', #172, #84, #210 ) ;
#64 = CC_DESIGN_PERSON_AND_ORGANIZATION_ASSIGNMENT ( #231, #198, ( #187 ) ) ;
#65 = CC_DESIGN_APPROVAL ( #217, ( #168 ) ) ;
#66 = CARTESIAN_POINT ( 'NONE',  ( 1.396592535537253342E-14, -0.4000000000000002998, 4.000000000000000000 ) ) ;
#67 = CARTESIAN_POINT ( 'NONE',  ( 0.0000000000000000000, 0.0000000000000000000, 0.0000000000000000000 ) ) ;
#68 = VERTEX_POINT ( 'NONE', #196 ) ;
#69 = AXIS2_PLACEMENT_3D ( 'NONE', #188, #153, #156 ) ;
#70 = LOCAL_TIME ( 10, 45, 38.00000000000000000, #127 ) ;
#71 = ORIENTED_EDGE ( 'NONE', *, *, #16, .T. ) ;
#72 = CC_DESIGN_DATE_AND_TIME_ASSIGNMENT ( #219, #108, ( #223 ) ) ;
#73 = AXIS2_PLACEMENT_3D ( 'NONE', #174, #56, #133 ) ;
#74 = ORIENTED_EDGE ( 'NONE', *, *, #175, .F. ) ;
#75 = EDGE_LOOP ( 'NONE', ( #55 ) ) ;
#76 = ADVANCED_FACE ( 'NONE', ( #152 ), #221, .F. ) ;
#77 = EDGE_LOOP ( 'NONE', ( #52 ) ) ;
#78 = AXIS2_PLACEMENT_3D ( 'NONE', #85, #62, #138 ) ;
#79 =( GEOMETRIC_REPRESENTATION_CONTEXT ( 3 ) GLOBAL_UNCERTAINTY_ASSIGNED_CONTEXT ( ( #149 ) ) GLOBAL_UNIT_ASSIGNED_CONTEXT ( ( #41, #125, #144 ) ) REPRESENTATION_CONTEXT ( 'NONE', 'WORKASPACE' ) );
#80 = DIRECTION ( 'NONE',  ( -3.491481338843133355E-15, 1.224646799147353207E-16, -1.000000000000000000 ) ) ;
#81 = CARTESIAN_POINT ( 'NONE',  ( 1.326762908760390423E-13, 8.998558695971062171E-33, 38.00000000000000000 ) ) ;
#82 = FACE_BOUND ( 'NONE', #93, .T. ) ;
#83 = CLOSED_SHELL ( 'NONE', ( #101, #29, #76 ) ) ;
#84 = DIRECTION ( 'NONE',  ( -3.491481338843133355E-15, 1.224646799147353207E-16, -1.000000000000000000 ) ) ;
#85 = CARTESIAN_POINT ( 'NONE',  ( -6.413803915257455362E-31, 2.249659577954771652E-32, -1.836986451539392583E-16 ) ) ;
#86 = CALENDAR_DATE ( 2021, 1, 11 ) ;
#87 = CARTESIAN_POINT ( 'NONE',  ( 1.577324908759778191E-14, -0.4681483474218604002, 4.517638090205026380 ) ) ;
#88 = APPROVAL_ROLE ( '' ) ;
#89 = DIRECTION ( 'NONE',  ( 3.491481338843133355E-15, -1.224646799147353207E-16, 1.000000000000000000 ) ) ;
#90 = SHAPE_DEFINITION_REPRESENTATION ( #130, #131 ) ;
#91 = EDGE_LOOP ( 'NONE', ( #112 ) ) ;
#92 = PERSON_AND_ORGANIZATION_ROLE ( 'creator' ) ;
#93 = EDGE_LOOP ( 'NONE', ( #13 ) ) ;
#94 = ADVANCED_FACE ( 'NONE', ( #34, #222 ), #155, .T. ) ;
#95 = PLANE ( 'NONE',  #58 ) ;
#96 = DIRECTION ( 'NONE',  ( 3.491481338843133355E-15, -1.219242935835426903E-16, 1.000000000000000000 ) ) ;
#97 = DIRECTION ( 'NONE',  ( 3.491481338843133355E-15, -1.219242935835426903E-16, 1.000000000000000000 ) ) ;
#98 = DIRECTION ( 'NONE',  ( -4.377669841636889275E-31, -1.000000000000000000, -1.219242935835426903E-16 ) ) ;
#99 = AXIS2_PLACEMENT_3D ( 'NONE', #60, #57, #100 ) ;
#100 = DIRECTION ( 'NONE',  ( 0.0000000000000000000, 1.000000000000000000, 0.0000000000000000000 ) ) ;
#101 = ADVANCED_FACE ( 'NONE', ( #22 ), #95, .T. ) ;
#102 = APPROVAL_STATUS ( 'not_yet_approved' ) ;
#103 = LOCAL_TIME ( 10, 45, 38.00000000000000000, #142 ) ;
#104 = DATE_TIME_ROLE ( 'creation_date' ) ;
#105 = DIRECTION ( 'NONE',  ( 1.000000000000000000, 0.0000000000000000000, 0.0000000000000000000 ) ) ;
#106 = APPROVAL ( #102, 'UNSPECIFIED' ) ;
#107 = EDGE_LOOP ( 'NONE', ( #239 ) ) ;
#108 = DATE_TIME_ROLE ( 'classification_date' ) ;
#109 = ORIENTED_EDGE ( 'NONE', *, *, #61, .F. ) ;
#110 = ADVANCED_FACE ( 'NONE', ( #167, #82 ), #120, .T. ) ;
#111 = PERSON_AND_ORGANIZATION ( #171, #40 ) ;
#112 = ORIENTED_EDGE ( 'NONE', *, *, #3, .F. ) ;
#113 = ORIENTED_EDGE ( 'NONE', *, *, #226, .F. ) ;
#114 = FACE_OUTER_BOUND ( 'NONE', #77, .T. ) ;
#115 = CARTESIAN_POINT ( 'NONE',  ( 0.0000000000000000000, 0.0000000000000000000, 0.0000000000000000000 ) ) ;
#116 = AXIS2_PLACEMENT_3D ( 'NONE', #151, #97, #212 ) ;
#117 = DIRECTION ( 'NONE',  ( -4.256963957985708889E-31, -1.000000000000000000, -1.219242935835426903E-16 ) ) ;
#118 = FACE_OUTER_BOUND ( 'NONE', #235, .T. ) ;
#119 = DIRECTION ( 'NONE',  ( 4.275831445896958607E-31, 1.000000000000000000, 1.224646799147353207E-16 ) ) ;
#120 = CONICAL_SURFACE ( 'NONE', #99, 1.199999999999997957, 0.7853981633974450594 ) ;
#121 = CARTESIAN_POINT ( 'NONE',  ( 1.396592535537253342E-14, 1.124819836996387869E-32, 4.000000000000000000 ) ) ;
#122 = ADVANCED_FACE ( 'NONE', ( #224, #242 ), #180, .T. ) ;
#123 = PRODUCT_RELATED_PRODUCT_CATEGORY ( 'detail', '', ( #202 ) ) ;
#124 = APPROVAL_PERSON_ORGANIZATION ( #236, #24, #184 ) ;
#125 =( NAMED_UNIT ( * ) PLANE_ANGLE_UNIT ( ) SI_UNIT ( $, .RADIAN. ) );
#126 = VERTEX_POINT ( 'NONE', #158 ) ;
#127 = COORDINATED_UNIVERSAL_TIME_OFFSET ( 1, 0, .AHEAD. ) ;
#128 = CC_DESIGN_APPROVAL ( #24, ( #223 ) ) ;
#129 = EDGE_LOOP ( 'NONE', ( #74 ) ) ;
#130 = PRODUCT_DEFINITION_SHAPE ( 'NONE', 'NONE',  #187 ) ;
#131 = ADVANCED_BREP_SHAPE_REPRESENTATION ( '57164', ( #12, #177, #35 ), #79 ) ;
#132 = AXIS2_PLACEMENT_3D ( 'NONE', #20, #154, #59 ) ;
#133 = DIRECTION ( 'NONE',  ( 0.0000000000000000000, -1.000000000000000000, 0.0000000000000000000 ) ) ;
#134 = DIRECTION ( 'NONE',  ( 3.491481338843133355E-15, -1.219242935835426903E-16, 1.000000000000000000 ) ) ;
#135 = AXIS2_PLACEMENT_3D ( 'NONE', #213, #17, #119 ) ;
#136 = CARTESIAN_POINT ( 'NONE',  ( 1.396592535537253342E-14, -4.876971743341707611E-16, 4.000000000000000000 ) ) ;
#137 = PLANE ( 'NONE',  #229 ) ;
#138 = DIRECTION ( 'NONE',  ( -4.275831445896958607E-31, -1.000000000000000000, -1.224646799147353207E-16 ) ) ;
#139 = APPROVAL_PERSON_ORGANIZATION ( #9, #106, #176 ) ;
#140 = VERTEX_POINT ( 'NONE', #6 ) ;
#141 = DIRECTION ( 'NONE',  ( 0.0000000000000000000, 0.0000000000000000000, 1.000000000000000000 ) ) ;
#142 = COORDINATED_UNIVERSAL_TIME_OFFSET ( 1, 0, .AHEAD. ) ;
#143 = CIRCLE ( 'NONE', #69, 0.4681483474218599006 ) ;
#144 =( NAMED_UNIT ( * ) SI_UNIT ( $, .STERADIAN. ) SOLID_ANGLE_UNIT ( ) );
#145 = CIRCLE ( 'NONE', #63, 1.499999999999997558 ) ;
#146 = APPROVAL_PERSON_ORGANIZATION ( #182, #217, #88 ) ;
#147 = ORIENTED_EDGE ( 'NONE', *, *, #61, .T. ) ;
#148 = PERSON_AND_ORGANIZATION ( #171, #40 ) ;
#149 = UNCERTAINTY_MEASURE_WITH_UNIT (LENGTH_MEASURE( 1.000000000000000082E-05 ), #41, 'distance_accuracy_value', 'NONE');
#150 = AXIS2_PLACEMENT_3D ( 'NONE', #170, #189, #214 ) ;
#151 = CARTESIAN_POINT ( 'NONE',  ( 1.396592535537253342E-14, -4.876971743341707611E-16, 4.000000000000000000 ) ) ;
#152 = FACE_OUTER_BOUND ( 'NONE', #129, .T. ) ;
#153 = DIRECTION ( 'NONE',  ( 3.491481338843133355E-15, -1.219242935835426903E-16, 1.000000000000000000 ) ) ;
#154 = DIRECTION ( 'NONE',  ( -3.491481338843133355E-15, 1.219242935835426903E-16, -1.000000000000000000 ) ) ;
#155 = CYLINDRICAL_SURFACE ( 'NONE', #135, 1.499999999999995781 ) ;
#156 = DIRECTION ( 'NONE',  ( 0.0000000000000000000, -1.000000000000000000, 0.0000000000000000000 ) ) ;
#157 = CC_DESIGN_PERSON_AND_ORGANIZATION_ASSIGNMENT ( #200, #165, ( #223 ) ) ;
#158 = CARTESIAN_POINT ( 'NONE',  ( 1.326762908760390423E-13, 1.199999999999993294, 38.00000000000000000 ) ) ;
#159 = APPROVAL_DATE_TIME ( #7, #106 ) ;
#160 = COORDINATED_UNIVERSAL_TIME_OFFSET ( 1, 0, .AHEAD. ) ;
#161 = AXIS2_PLACEMENT_3D ( 'NONE', #136, #38, #234 ) ;
#162 = CARTESIAN_POINT ( 'NONE',  ( 1.316288464743861212E-13, 1.499999999999993117, 37.69999999999999574 ) ) ;
#163 = ORIENTED_EDGE ( 'NONE', *, *, #192, .T. ) ;
#164 = COORDINATED_UNIVERSAL_TIME_OFFSET ( 1, 0, .AHEAD. ) ;
#165 = PERSON_AND_ORGANIZATION_ROLE ( 'classification_officer' ) ;
#166 = EDGE_LOOP ( 'NONE', ( #237 ) ) ;
#167 = FACE_OUTER_BOUND ( 'NONE', #107, .T. ) ;
#168 = PRODUCT_DEFINITION_FORMATION_WITH_SPECIFIED_SOURCE ( 'ANY', '', #202, .NOT_KNOWN. ) ;
#169 = DIRECTION ( 'NONE',  ( -4.275831445896958607E-31, -1.000000000000000000, -1.224646799147353207E-16 ) ) ;
#170 = CARTESIAN_POINT ( 'NONE',  ( 1.326762908760390423E-13, -4.653657836759941941E-15, 38.00000000000000000 ) ) ;
#171 = PERSON ( 'UNSPECIFIED', 'UNSPECIFIED', 'UNSPECIFIED', ('UNSPECIFIED'), ('UNSPECIFIED'), ('UNSPECIFIED') ) ;
#172 = CARTESIAN_POINT ( 'NONE',  ( 1.316288464743861212E-13, -4.616918432785521081E-15, 37.69999999999999574 ) ) ;
#173 = AXIS2_PLACEMENT_3D ( 'NONE', #115, #191, #117 ) ;
#174 = CARTESIAN_POINT ( 'NONE',  ( 4.224905990795662649E-14, -1.475358532362421124E-15, 12.10061169106961820 ) ) ;
#175 = EDGE_CURVE ( 'NONE', #140, #140, #50, .T. ) ;
#176 = APPROVAL_ROLE ( '' ) ;
#177 = MANIFOLD_SOLID_BREP ( 'Corps-Déplacer/Copier1[2]', #83 ) ;
#178 = CC_DESIGN_PERSON_AND_ORGANIZATION_ASSIGNMENT ( #148, #220, ( #168 ) ) ;
#179 = APPLICATION_PROTOCOL_DEFINITION ( 'international standard', 'config_control_design', 1994, #207 ) ;
#180 = CONICAL_SURFACE ( 'NONE', #73, 2.499999999999996447, 0.2617993877991428575 ) ;
#181 = APPLICATION_PROTOCOL_DEFINITION ( 'international standard', 'config_control_design', 1994, #227 ) ;
#182 = PERSON_AND_ORGANIZATION ( #171, #40 ) ;
#183 = PERSON_AND_ORGANIZATION ( #171, #40 ) ;
#184 = APPROVAL_ROLE ( '' ) ;
#185 = DATE_AND_TIME ( #218, #70 ) ;
#186 = APPROVAL_STATUS ( 'not_yet_approved' ) ;
#187 = PRODUCT_DEFINITION ( 'UNKNOWN', '', #168, #208 ) ;
#188 = CARTESIAN_POINT ( 'NONE',  ( 1.577324908759778191E-14, -5.508098328143527889E-16, 4.517638090205026380 ) ) ;
#189 = DIRECTION ( 'NONE',  ( -3.491481338843133355E-15, 1.224646799147353207E-16, -1.000000000000000000 ) ) ;
#190 = DIRECTION ( 'NONE',  ( -4.256963957985706261E-31, -1.000000000000000000, -1.219242935835425917E-16 ) ) ;
#191 = DIRECTION ( 'NONE',  ( 3.491481338843133355E-15, -1.219242935835426903E-16, 1.000000000000000000 ) ) ;
#192 = EDGE_CURVE ( 'NONE', #68, #68, #211, .T. ) ;
#193 = FACE_OUTER_BOUND ( 'NONE', #201, .T. ) ;
#194 = CC_DESIGN_APPROVAL ( #106, ( #187 ) ) ;
#195 = MECHANICAL_CONTEXT ( 'NONE', #227, 'mechanical' ) ;
#196 = CARTESIAN_POINT ( 'NONE',  ( 2.921867415771509238E-14, -1.499999999999996669, 8.368560883500641978 ) ) ;
#197 = AXIS2_PLACEMENT_3D ( 'NONE', #121, #89, #44 ) ;
#198 = PERSON_AND_ORGANIZATION_ROLE ( 'creator' ) ;
#199 = CARTESIAN_POINT ( 'NONE',  ( 1.396592535537253342E-14, -0.4000000000000002998, 4.000000000000000000 ) ) ;
#200 = PERSON_AND_ORGANIZATION ( #171, #40 ) ;
#201 = EDGE_LOOP ( 'NONE', ( #113 ) ) ;
#202 = PRODUCT ( '57164', '57164', '', ( #195 ) ) ;
#203 = APPROVAL_DATE_TIME ( #48, #217 ) ;
#204 = EDGE_LOOP ( 'NONE', ( #109 ) ) ;
#205 = EDGE_LOOP ( 'NONE', ( #11 ) ) ;
#206 = CC_DESIGN_PERSON_AND_ORGANIZATION_ASSIGNMENT ( #183, #23, ( #202 ) ) ;
#207 = APPLICATION_CONTEXT ( 'configuration controlled 3d designs of mechanical parts and assemblies' ) ;
#208 = DESIGN_CONTEXT ( 'detailed design', #207, 'design' ) ;
#209 = ORIENTED_EDGE ( 'NONE', *, *, #175, .T. ) ;
#210 = DIRECTION ( 'NONE',  ( 0.0000000000000000000, 1.000000000000000000, 0.0000000000000000000 ) ) ;
#211 = CIRCLE ( 'NONE', #132, 1.499999999999995781 ) ;
#212 = DIRECTION ( 'NONE',  ( 0.0000000000000000000, -1.000000000000000000, 0.0000000000000000000 ) ) ;
#213 = CARTESIAN_POINT ( 'NONE',  ( 0.0000000000000000000, 0.0000000000000000000, 0.0000000000000000000 ) ) ;
#214 = DIRECTION ( 'NONE',  ( 0.0000000000000000000, 1.000000000000000000, 0.0000000000000000000 ) ) ;
#215 = COORDINATED_UNIVERSAL_TIME_OFFSET ( 1, 0, .AHEAD. ) ;
#216 = CALENDAR_DATE ( 2021, 1, 11 ) ;
#217 = APPROVAL ( #8, 'UNSPECIFIED' ) ;
#218 = CALENDAR_DATE ( 2021, 1, 11 ) ;
#219 = DATE_AND_TIME ( #30, #53 ) ;
#220 = PERSON_AND_ORGANIZATION_ROLE ( 'design_supplier' ) ;
#221 = PLANE ( 'NONE',  #78 ) ;
#222 = FACE_OUTER_BOUND ( 'NONE', #75, .T. ) ;
#223 = SECURITY_CLASSIFICATION ( '', '', #15 ) ;
#224 = FACE_BOUND ( 'NONE', #32, .T. ) ;
#225 = DIRECTION ( 'NONE',  ( 3.491481338843133355E-15, -1.224646799147353207E-16, 1.000000000000000000 ) ) ;
#226 = EDGE_CURVE ( 'NONE', #230, #230, #25, .T. ) ;
#227 = APPLICATION_CONTEXT ( 'configuration controlled 3d designs of mechanical parts and assemblies' ) ;
#228 = PLANE ( 'NONE',  #197 ) ;
#229 = AXIS2_PLACEMENT_3D ( 'NONE', #81, #80, #39 ) ;
#230 = VERTEX_POINT ( 'NONE', #199 ) ;
#231 = PERSON_AND_ORGANIZATION ( #171, #40 ) ;
#232 = AXIS2_PLACEMENT_3D ( 'NONE', #243, #134, #190 ) ;
#233 = CC_DESIGN_SECURITY_CLASSIFICATION ( #223, ( #168 ) ) ;
#234 = DIRECTION ( 'NONE',  ( 0.0000000000000000000, -1.000000000000000000, 0.0000000000000000000 ) ) ;
#235 = EDGE_LOOP ( 'NONE', ( #209 ) ) ;
#236 = PERSON_AND_ORGANIZATION ( #171, #40 ) ;
#237 = ORIENTED_EDGE ( 'NONE', *, *, #226, .T. ) ;
#238 = CIRCLE ( 'NONE', #150, 1.199999999999997957 ) ;
#239 = ORIENTED_EDGE ( 'NONE', *, *, #16, .F. ) ;
#240 = EDGE_LOOP ( 'NONE', ( #71 ) ) ;
#241 = ADVANCED_FACE ( 'NONE', ( #42 ), #228, .F. ) ;
#242 = FACE_OUTER_BOUND ( 'NONE', #31, .T. ) ;
#243 = CARTESIAN_POINT ( 'NONE',  ( -2.094414058255459908E-30, 7.313799781294225611E-32, -5.998640276133976839E-16 ) ) ;
ENDSEC;
END-ISO-10303-21;
