ISO-10303-21;
HEADER;
FILE_DESCRIPTION (( 'STEP AP203' ),
    '1' );
FILE_NAME ('57163.step',
    '2021-11-01T09:45:37',
    ( '' ),
    ( '' ),
    'SwSTEP 2.0',
    'SolidWorks 2019',
    '' );
FILE_SCHEMA (( 'CONFIG_CONTROL_DESIGN' ));
ENDSEC;

DATA;
#1 = CIRCLE ( 'NONE', #139, 1.499999999999997558 ) ;
#2 = APPROVAL_PERSON_ORGANIZATION ( #187, #220, #59 ) ;
#3 = ADVANCED_FACE ( 'NONE', ( #227, #166 ), #235, .T. ) ;
#4 = ORIENTED_EDGE ( 'NONE', *, *, #46, .F. ) ;
#5 = CARTESIAN_POINT ( 'NONE',  ( 2.116487858824761368E-14, -7.390882608894495089E-16, 6.061862153689865806 ) ) ;
#6 = EDGE_LOOP ( 'NONE', ( #126 ) ) ;
#7 = TOROIDAL_SURFACE ( 'NONE', #26, 2.374999999999999556, 2.000000000000000000 ) ;
#8 = APPLICATION_PROTOCOL_DEFINITION ( 'international standard', 'config_control_design', 1994, #103 ) ;
#9 = PERSON_AND_ORGANIZATION ( #133, #95 ) ;
#10 = CARTESIAN_POINT ( 'NONE',  ( 1.316288464743861212E-13, 1.499999999999993117, 37.69999999999999574 ) ) ;
#11 = EDGE_CURVE ( 'NONE', #148, #148, #90, .T. ) ;
#12 = CARTESIAN_POINT ( 'NONE',  ( 5.586370142149011002E-15, -0.3750000000000003331, 1.599999999999999201 ) ) ;
#13 = DIRECTION ( 'NONE',  ( 0.0000000000000000000, -1.000000000000000000, 0.0000000000000000000 ) ) ;
#14 = DATE_AND_TIME ( #44, #74 ) ;
#15 = CARTESIAN_POINT ( 'NONE',  ( 5.586370142149013368E-15, -2.312964634635748873E-16, 1.599999999999999867 ) ) ;
#16 = MANIFOLD_SOLID_BREP ( 'Corps-Déplacer/Copier1[1]', #161 ) ;
#17 = APPROVAL_DATE_TIME ( #92, #153 ) ;
#18 = AXIS2_PLACEMENT_3D ( 'NONE', #15, #175, #202 ) ;
#19 = PLANE ( 'NONE',  #18 ) ;
#20 = COORDINATED_UNIVERSAL_TIME_OFFSET ( 1, 0, .AHEAD. ) ;
#21 = DATE_AND_TIME ( #189, #106 ) ;
#22 = ADVANCED_FACE ( 'NONE', ( #219 ), #31, .F. ) ;
#23 = CC_DESIGN_PERSON_AND_ORGANIZATION_ASSIGNMENT ( #174, #203, ( #64 ) ) ;
#24 = EDGE_LOOP ( 'NONE', ( #4 ) ) ;
#25 = ORIENTED_EDGE ( 'NONE', *, *, #78, .T. ) ;
#26 = AXIS2_PLACEMENT_3D ( 'NONE', #151, #191, #131 ) ;
#27 = DIRECTION ( 'NONE',  ( 3.491481338843133355E-15, -1.219242935835426903E-16, 1.000000000000000000 ) ) ;
#28 = DIRECTION ( 'NONE',  ( 0.0000000000000000000, -1.000000000000000000, 0.0000000000000000000 ) ) ;
#29 = ORIENTED_EDGE ( 'NONE', *, *, #11, .F. ) ;
#30 = CARTESIAN_POINT ( 'NONE',  ( 5.586370142149011002E-15, -0.3750000000000003331, 1.599999999999999201 ) ) ;
#31 = PLANE ( 'NONE',  #138 ) ;
#32 = APPROVAL_PERSON_ORGANIZATION ( #61, #153, #192 ) ;
#33 =( NAMED_UNIT ( * ) SI_UNIT ( $, .STERADIAN. ) SOLID_ANGLE_UNIT ( ) );
#34 = CARTESIAN_POINT ( 'NONE',  ( 7.393693874374268172E-15, -2.581915282138505196E-16, 2.117638090205028245 ) ) ;
#35 = PERSON_AND_ORGANIZATION_ROLE ( 'classification_officer' ) ;
#36 = ADVANCED_FACE ( 'NONE', ( #188 ), #19, .F. ) ;
#37 = DIRECTION ( 'NONE',  ( -3.491481338843133355E-15, 1.224646799147353207E-16, -1.000000000000000000 ) ) ;
#38 = CC_DESIGN_PERSON_AND_ORGANIZATION_ASSIGNMENT ( #223, #76, ( #100 ) ) ;
#39 = DIRECTION ( 'NONE',  ( 0.0000000000000000000, 1.000000000000000000, 0.0000000000000000000 ) ) ;
#40 = COORDINATED_UNIVERSAL_TIME_OFFSET ( 1, 0, .AHEAD. ) ;
#41 = AXIS2_PLACEMENT_3D ( 'NONE', #172, #238, #75 ) ;
#42 = DIRECTION ( 'NONE',  ( 3.491481338843133355E-15, -1.219242935835426903E-16, 1.000000000000000000 ) ) ;
#43 = UNCERTAINTY_MEASURE_WITH_UNIT (LENGTH_MEASURE( 1.000000000000000082E-05 ), #88, 'distance_accuracy_value', 'NONE');
#44 = CALENDAR_DATE ( 2021, 1, 11 ) ;
#45 = CC_DESIGN_APPROVAL ( #153, ( #68 ) ) ;
#46 = EDGE_CURVE ( 'NONE', #234, #234, #1, .T. ) ;
#47 = CONICAL_SURFACE ( 'NONE', #173, 1.199999999999997957, 0.7853981633974450594 ) ;
#48 = DIRECTION ( 'NONE',  ( 0.0000000000000000000, 0.0000000000000000000, 1.000000000000000000 ) ) ;
#49 = FACE_BOUND ( 'NONE', #50, .T. ) ;
#50 = EDGE_LOOP ( 'NONE', ( #25 ) ) ;
#51 = DIRECTION ( 'NONE',  ( 0.0000000000000000000, 1.000000000000000000, 0.0000000000000000000 ) ) ;
#52 = EDGE_LOOP ( 'NONE', ( #86 ) ) ;
#53 = CARTESIAN_POINT ( 'NONE',  ( 1.326762908760390423E-13, -4.653657836759941941E-15, 38.00000000000000000 ) ) ;
#54 = CARTESIAN_POINT ( 'NONE',  ( -6.413803915257455362E-31, 2.249659577954771652E-32, -1.836986451539392583E-16 ) ) ;
#55 = APPROVAL_DATE_TIME ( #150, #181 ) ;
#56 = FACE_OUTER_BOUND ( 'NONE', #102, .T. ) ;
#57 = SECURITY_CLASSIFICATION_LEVEL ( 'unclassified' ) ;
#58 = DIRECTION ( 'NONE',  ( -4.275831445896958607E-31, -1.000000000000000000, -1.224646799147353207E-16 ) ) ;
#59 = APPROVAL_ROLE ( '' ) ;
#60 = ADVANCED_FACE ( 'NONE', ( #198, #56 ), #7, .F. ) ;
#61 = PERSON_AND_ORGANIZATION ( #133, #95 ) ;
#62 = CIRCLE ( 'NONE', #104, 0.3749999999999998890 ) ;
#63 = EDGE_CURVE ( 'NONE', #217, #217, #214, .T. ) ;
#64 = PRODUCT_DEFINITION ( 'UNKNOWN', '', #100, #157 ) ;
#65 = DIRECTION ( 'NONE',  ( 3.491481338843133355E-15, -1.219242935835426903E-16, 1.000000000000000000 ) ) ;
#66 = FACE_BOUND ( 'NONE', #82, .T. ) ;
#67 = EDGE_LOOP ( 'NONE', ( #229 ) ) ;
#68 = SECURITY_CLASSIFICATION ( '', '', #57 ) ;
#69 = ORIENTED_EDGE ( 'NONE', *, *, #63, .T. ) ;
#70 = CARTESIAN_POINT ( 'NONE',  ( 5.586370142149013368E-15, -2.312964634635748873E-16, 1.599999999999999867 ) ) ;
#71 = PRODUCT ( '57163', '57163', '', ( #168 ) ) ;
#72 = DIRECTION ( 'NONE',  ( 3.491481338843133355E-15, -1.224646799147353207E-16, 1.000000000000000000 ) ) ;
#73 = CC_DESIGN_PERSON_AND_ORGANIZATION_ASSIGNMENT ( #98, #242, ( #100 ) ) ;
#74 = LOCAL_TIME ( 10, 45, 37.00000000000000000, #208 ) ;
#75 = DIRECTION ( 'NONE',  ( 4.275831445896958607E-31, 1.000000000000000000, 1.224646799147353207E-16 ) ) ;
#76 = PERSON_AND_ORGANIZATION_ROLE ( 'creator' ) ;
#77 = SHAPE_DEFINITION_REPRESENTATION ( #99, #79 ) ;
#78 = EDGE_CURVE ( 'NONE', #85, #85, #152, .T. ) ;
#79 = ADVANCED_BREP_SHAPE_REPRESENTATION ( '57163', ( #16, #178, #182 ), #130 ) ;
#80 = AXIS2_PLACEMENT_3D ( 'NONE', #236, #114, #149 ) ;
#81 = APPLICATION_CONTEXT ( 'configuration controlled 3d designs of mechanical parts and assemblies' ) ;
#82 = EDGE_LOOP ( 'NONE', ( #84 ) ) ;
#83 = CARTESIAN_POINT ( 'NONE',  ( -2.083771648360496221E-30, 7.276635947879612214E-32, -5.968159202738091314E-16 ) ) ;
#84 = ORIENTED_EDGE ( 'NONE', *, *, #11, .T. ) ;
#85 = VERTEX_POINT ( 'NONE', #180 ) ;
#86 = ORIENTED_EDGE ( 'NONE', *, *, #226, .T. ) ;
#87 = APPLICATION_PROTOCOL_DEFINITION ( 'international standard', 'config_control_design', 1994, #81 ) ;
#88 =( LENGTH_UNIT ( ) NAMED_UNIT ( * ) SI_UNIT ( .MILLI., .METRE. ) );
#89 = ORIENTED_EDGE ( 'NONE', *, *, #97, .T. ) ;
#90 = CIRCLE ( 'NONE', #80, 1.199999999999997957 ) ;
#91 = CYLINDRICAL_SURFACE ( 'NONE', #205, 0.3750000000000000000 ) ;
#92 = DATE_AND_TIME ( #241, #120 ) ;
#93 = CARTESIAN_POINT ( 'NONE',  ( 0.0000000000000000000, 0.0000000000000000000, 0.0000000000000000000 ) ) ;
#94 = PLANE ( 'NONE',  #41 ) ;
#95 = ORGANIZATION ( 'UNSPECIFIED', 'UNSPECIFIED', '' ) ;
#96 = PLANE ( 'NONE',  #224 ) ;
#97 = EDGE_CURVE ( 'NONE', #183, #183, #159, .T. ) ;
#98 = PERSON_AND_ORGANIZATION ( #133, #95 ) ;
#99 = PRODUCT_DEFINITION_SHAPE ( 'NONE', 'NONE',  #64 ) ;
#100 = PRODUCT_DEFINITION_FORMATION_WITH_SPECIFIED_SOURCE ( 'ANY', '', #71, .NOT_KNOWN. ) ;
#101 = ADVANCED_FACE ( 'NONE', ( #112 ), #94, .F. ) ;
#102 = EDGE_LOOP ( 'NONE', ( #105 ) ) ;
#103 = APPLICATION_CONTEXT ( 'configuration controlled 3d designs of mechanical parts and assemblies' ) ;
#104 = AXIS2_PLACEMENT_3D ( 'NONE', #83, #108, #165 ) ;
#105 = ORIENTED_EDGE ( 'NONE', *, *, #78, .F. ) ;
#106 = LOCAL_TIME ( 10, 45, 37.00000000000000000, #40 ) ;
#107 = VERTEX_POINT ( 'NONE', #196 ) ;
#108 = DIRECTION ( 'NONE',  ( 3.491481338843133355E-15, -1.219242935835426903E-16, 1.000000000000000000 ) ) ;
#109 = CARTESIAN_POINT ( 'NONE',  ( 5.586370142149011002E-15, -1.950788697336681960E-16, 1.599999999999999201 ) ) ;
#110 = CC_DESIGN_PERSON_AND_ORGANIZATION_ASSIGNMENT ( #9, #169, ( #71 ) ) ;
#111 = APPROVAL_STATUS ( 'not_yet_approved' ) ;
#112 = FACE_OUTER_BOUND ( 'NONE', #144, .T. ) ;
#113 = COORDINATED_UNIVERSAL_TIME_OFFSET ( 1, 0, .AHEAD. ) ;
#114 = DIRECTION ( 'NONE',  ( -3.491481338843133355E-15, 1.224646799147353207E-16, -1.000000000000000000 ) ) ;
#115 = DIRECTION ( 'NONE',  ( 3.491481338843133355E-15, -1.219242935835426903E-16, 1.000000000000000000 ) ) ;
#116 = ADVANCED_FACE ( 'NONE', ( #132 ), #96, .T. ) ;
#117 = APPROVAL_STATUS ( 'not_yet_approved' ) ;
#118 = DATE_AND_TIME ( #134, #209 ) ;
#119 = AXIS2_PLACEMENT_3D ( 'NONE', #109, #115, #170 ) ;
#120 = LOCAL_TIME ( 10, 45, 37.00000000000000000, #20 ) ;
#121 = AXIS2_PLACEMENT_3D ( 'NONE', #93, #37, #129 ) ;
#122 = EDGE_LOOP ( 'NONE', ( #147 ) ) ;
#123 = ADVANCED_FACE ( 'NONE', ( #135, #204 ), #91, .T. ) ;
#124 = CONICAL_SURFACE ( 'NONE', #156, 2.499999999999996447, 0.2617993877991428575 ) ;
#125 = DIRECTION ( 'NONE',  ( 1.000000000000000000, 0.0000000000000000000, 0.0000000000000000000 ) ) ;
#126 = ORIENTED_EDGE ( 'NONE', *, *, #63, .F. ) ;
#127 = EDGE_LOOP ( 'NONE', ( #69 ) ) ;
#128 = DIRECTION ( 'NONE',  ( -3.491481338843133355E-15, 1.224646799147353207E-16, -1.000000000000000000 ) ) ;
#129 = DIRECTION ( 'NONE',  ( 4.275831445896958607E-31, 1.000000000000000000, 1.224646799147353207E-16 ) ) ;
#130 =( GEOMETRIC_REPRESENTATION_CONTEXT ( 3 ) GLOBAL_UNCERTAINTY_ASSIGNED_CONTEXT ( ( #43 ) ) GLOBAL_UNIT_ASSIGNED_CONTEXT ( ( #88, #228, #33 ) ) REPRESENTATION_CONTEXT ( 'NONE', 'WORKASPACE' ) );
#131 = DIRECTION ( 'NONE',  ( -4.317661773764587743E-31, -1.000000000000000000, -1.219242935835426903E-16 ) ) ;
#132 = FACE_OUTER_BOUND ( 'NONE', #160, .T. ) ;
#133 = PERSON ( 'UNSPECIFIED', 'UNSPECIFIED', 'UNSPECIFIED', ('UNSPECIFIED'), ('UNSPECIFIED'), ('UNSPECIFIED') ) ;
#134 = CALENDAR_DATE ( 2021, 1, 11 ) ;
#135 = FACE_OUTER_BOUND ( 'NONE', #52, .T. ) ;
#136 = AXIS2_PLACEMENT_3D ( 'NONE', #5, #211, #28 ) ;
#137 = CALENDAR_DATE ( 2021, 1, 11 ) ;
#138 = AXIS2_PLACEMENT_3D ( 'NONE', #54, #72, #199 ) ;
#139 = AXIS2_PLACEMENT_3D ( 'NONE', #222, #240, #39 ) ;
#140 = VERTEX_POINT ( 'NONE', #230 ) ;
#141 = FACE_OUTER_BOUND ( 'NONE', #24, .T. ) ;
#142 = FACE_OUTER_BOUND ( 'NONE', #67, .T. ) ;
#143 = AXIS2_PLACEMENT_3D ( 'NONE', #171, #190, #13 ) ;
#144 = EDGE_LOOP ( 'NONE', ( #29 ) ) ;
#145 = LOCAL_TIME ( 10, 45, 37.00000000000000000, #158 ) ;
#146 = PERSON_AND_ORGANIZATION ( #133, #95 ) ;
#147 = ORIENTED_EDGE ( 'NONE', *, *, #46, .T. ) ;
#148 = VERTEX_POINT ( 'NONE', #218 ) ;
#149 = DIRECTION ( 'NONE',  ( 0.0000000000000000000, 1.000000000000000000, 0.0000000000000000000 ) ) ;
#150 = DATE_AND_TIME ( #137, #145 ) ;
#151 = CARTESIAN_POINT ( 'NONE',  ( 5.586370142149011002E-15, 0.0000000000000000000, 1.599999999999999201 ) ) ;
#152 = CIRCLE ( 'NONE', #177, 0.4431483474218597673 ) ;
#153 = APPROVAL ( #117, 'UNSPECIFIED' ) ;
#154 = PERSON_AND_ORGANIZATION ( #133, #95 ) ;
#155 = DIRECTION ( 'NONE',  ( 3.491481338843133355E-15, -1.224646799147353207E-16, 1.000000000000000000 ) ) ;
#156 = AXIS2_PLACEMENT_3D ( 'NONE', #167, #27, #215 ) ;
#157 = DESIGN_CONTEXT ( 'detailed design', #81, 'design' ) ;
#158 = COORDINATED_UNIVERSAL_TIME_OFFSET ( 1, 0, .AHEAD. ) ;
#159 = CIRCLE ( 'NONE', #143, 0.3750000000000001110 ) ;
#160 = EDGE_LOOP ( 'NONE', ( #89 ) ) ;
#161 = CLOSED_SHELL ( 'NONE', ( #3, #194, #101, #243, #60, #36 ) ) ;
#162 = CC_DESIGN_SECURITY_CLASSIFICATION ( #68, ( #100 ) ) ;
#163 = ORIENTED_EDGE ( 'NONE', *, *, #226, .F. ) ;
#164 = CC_DESIGN_DATE_AND_TIME_ASSIGNMENT ( #14, #201, ( #64 ) ) ;
#165 = DIRECTION ( 'NONE',  ( -4.256963957985704510E-31, -1.000000000000000000, -1.219242935835427149E-16 ) ) ;
#166 = FACE_OUTER_BOUND ( 'NONE', #213, .T. ) ;
#167 = CARTESIAN_POINT ( 'NONE',  ( 3.419526433848915410E-14, -1.194115919220187438E-15, 9.793912961258845584 ) ) ;
#168 = MECHANICAL_CONTEXT ( 'NONE', #103, 'mechanical' ) ;
#169 = PERSON_AND_ORGANIZATION_ROLE ( 'design_owner' ) ;
#170 = DIRECTION ( 'NONE',  ( 0.0000000000000000000, -1.000000000000000000, 0.0000000000000000000 ) ) ;
#171 = CARTESIAN_POINT ( 'NONE',  ( 5.586370142149011002E-15, -1.950788697336681960E-16, 1.599999999999999201 ) ) ;
#172 = CARTESIAN_POINT ( 'NONE',  ( 1.326762908760390423E-13, 8.998558695971062171E-33, 38.00000000000000000 ) ) ;
#173 = AXIS2_PLACEMENT_3D ( 'NONE', #53, #128, #51 ) ;
#174 = PERSON_AND_ORGANIZATION ( #133, #95 ) ;
#175 = DIRECTION ( 'NONE',  ( 3.491481338843133355E-15, -1.224646799147353207E-16, 1.000000000000000000 ) ) ;
#176 = DATE_TIME_ROLE ( 'classification_date' ) ;
#177 = AXIS2_PLACEMENT_3D ( 'NONE', #34, #42, #200 ) ;
#178 = MANIFOLD_SOLID_BREP ( 'Corps-Déplacer/Copier1[2]', #221 ) ;
#179 = EDGE_CURVE ( 'NONE', #140, #140, #237, .T. ) ;
#180 = CARTESIAN_POINT ( 'NONE',  ( 7.393693874374268172E-15, -0.4431483474218600449, 2.117638090205028245 ) ) ;
#181 = APPROVAL ( #197, 'UNSPECIFIED' ) ;
#182 = AXIS2_PLACEMENT_3D ( 'NONE', #185, #48, #125 ) ;
#183 = VERTEX_POINT ( 'NONE', #30 ) ;
#184 = APPROVAL_PERSON_ORGANIZATION ( #146, #181, #186 ) ;
#185 = CARTESIAN_POINT ( 'NONE',  ( 0.0000000000000000000, 0.0000000000000000000, 0.0000000000000000000 ) ) ;
#186 = APPROVAL_ROLE ( '' ) ;
#187 = PERSON_AND_ORGANIZATION ( #133, #95 ) ;
#188 = FACE_OUTER_BOUND ( 'NONE', #6, .T. ) ;
#189 = CALENDAR_DATE ( 2021, 1, 11 ) ;
#190 = DIRECTION ( 'NONE',  ( 3.491481338843133355E-15, -1.219242935835426903E-16, 1.000000000000000000 ) ) ;
#191 = DIRECTION ( 'NONE',  ( 3.491481338843133355E-15, -1.219242935835426903E-16, 1.000000000000000000 ) ) ;
#192 = APPROVAL_ROLE ( '' ) ;
#193 = PRODUCT_RELATED_PRODUCT_CATEGORY ( 'detail', '', ( #71 ) ) ;
#194 = ADVANCED_FACE ( 'NONE', ( #141, #66 ), #47, .T. ) ;
#195 = ORIENTED_EDGE ( 'NONE', *, *, #97, .F. ) ;
#196 = CARTESIAN_POINT ( 'NONE',  ( -2.243407796784959943E-30, -0.3749999999999998890, -6.425375303676377142E-16 ) ) ;
#197 = APPROVAL_STATUS ( 'not_yet_approved' ) ;
#198 = FACE_OUTER_BOUND ( 'NONE', #127, .T. ) ;
#199 = DIRECTION ( 'NONE',  ( -4.275831445896958607E-31, -1.000000000000000000, -1.224646799147353207E-16 ) ) ;
#200 = DIRECTION ( 'NONE',  ( 0.0000000000000000000, -1.000000000000000000, 0.0000000000000000000 ) ) ;
#201 = DATE_TIME_ROLE ( 'creation_date' ) ;
#202 = DIRECTION ( 'NONE',  ( -4.275831445896958607E-31, -1.000000000000000000, -1.224646799147353207E-16 ) ) ;
#203 = PERSON_AND_ORGANIZATION_ROLE ( 'creator' ) ;
#204 = FACE_OUTER_BOUND ( 'NONE', #233, .T. ) ;
#205 = AXIS2_PLACEMENT_3D ( 'NONE', #212, #65, #231 ) ;
#206 = CC_DESIGN_APPROVAL ( #181, ( #64 ) ) ;
#207 = CC_DESIGN_DATE_AND_TIME_ASSIGNMENT ( #21, #176, ( #68 ) ) ;
#208 = COORDINATED_UNIVERSAL_TIME_OFFSET ( 1, 0, .AHEAD. ) ;
#209 = LOCAL_TIME ( 10, 45, 37.00000000000000000, #113 ) ;
#210 = CC_DESIGN_PERSON_AND_ORGANIZATION_ASSIGNMENT ( #154, #35, ( #68 ) ) ;
#211 = DIRECTION ( 'NONE',  ( -3.491481338843133355E-15, 1.219242935835426903E-16, -1.000000000000000000 ) ) ;
#212 = CARTESIAN_POINT ( 'NONE',  ( 0.0000000000000000000, 0.0000000000000000000, 0.0000000000000000000 ) ) ;
#213 = EDGE_LOOP ( 'NONE', ( #232 ) ) ;
#214 = CIRCLE ( 'NONE', #119, 0.3750000000000001110 ) ;
#215 = DIRECTION ( 'NONE',  ( 0.0000000000000000000, -1.000000000000000000, 0.0000000000000000000 ) ) ;
#216 = EDGE_LOOP ( 'NONE', ( #163 ) ) ;
#217 = VERTEX_POINT ( 'NONE', #12 ) ;
#218 = CARTESIAN_POINT ( 'NONE',  ( 1.326762908760390423E-13, 1.199999999999993294, 38.00000000000000000 ) ) ;
#219 = FACE_OUTER_BOUND ( 'NONE', #216, .T. ) ;
#220 = APPROVAL ( #111, 'UNSPECIFIED' ) ;
#221 = CLOSED_SHELL ( 'NONE', ( #116, #123, #22 ) ) ;
#222 = CARTESIAN_POINT ( 'NONE',  ( 1.316288464743861212E-13, -4.616918432785521081E-15, 37.69999999999999574 ) ) ;
#223 = PERSON_AND_ORGANIZATION ( #133, #95 ) ;
#224 = AXIS2_PLACEMENT_3D ( 'NONE', #70, #155, #58 ) ;
#225 = CC_DESIGN_APPROVAL ( #220, ( #100 ) ) ;
#226 = EDGE_CURVE ( 'NONE', #107, #107, #62, .T. ) ;
#227 = FACE_OUTER_BOUND ( 'NONE', #122, .T. ) ;
#228 =( NAMED_UNIT ( * ) PLANE_ANGLE_UNIT ( ) SI_UNIT ( $, .RADIAN. ) );
#229 = ORIENTED_EDGE ( 'NONE', *, *, #179, .T. ) ;
#230 = CARTESIAN_POINT ( 'NONE',  ( 2.116487858824761368E-14, -1.499999999999996225, 6.061862153689865806 ) ) ;
#231 = DIRECTION ( 'NONE',  ( -4.256963957985708889E-31, -1.000000000000000000, -1.219242935835426903E-16 ) ) ;
#232 = ORIENTED_EDGE ( 'NONE', *, *, #179, .F. ) ;
#233 = EDGE_LOOP ( 'NONE', ( #195 ) ) ;
#234 = VERTEX_POINT ( 'NONE', #10 ) ;
#235 = CYLINDRICAL_SURFACE ( 'NONE', #121, 1.499999999999995559 ) ;
#236 = CARTESIAN_POINT ( 'NONE',  ( 1.326762908760390423E-13, -4.653657836759941941E-15, 38.00000000000000000 ) ) ;
#237 = CIRCLE ( 'NONE', #136, 1.499999999999995559 ) ;
#238 = DIRECTION ( 'NONE',  ( -3.491481338843133355E-15, 1.224646799147353207E-16, -1.000000000000000000 ) ) ;
#239 = APPROVAL_DATE_TIME ( #118, #220 ) ;
#240 = DIRECTION ( 'NONE',  ( -3.491481338843133355E-15, 1.224646799147353207E-16, -1.000000000000000000 ) ) ;
#241 = CALENDAR_DATE ( 2021, 1, 11 ) ;
#242 = PERSON_AND_ORGANIZATION_ROLE ( 'design_supplier' ) ;
#243 = ADVANCED_FACE ( 'NONE', ( #49, #142 ), #124, .T. ) ;
ENDSEC;
END-ISO-10303-21;
