ISO-10303-21;
HEADER;
FILE_DESCRIPTION (( 'STEP AP203' ),
    '1' );
FILE_NAME ('57162.step',
    '2021-11-01T09:45:37',
    ( '' ),
    ( '' ),
    'SwSTEP 2.0',
    'SolidWorks 2019',
    '' );
FILE_SCHEMA (( 'CONFIG_CONTROL_DESIGN' ));
ENDSEC;

DATA;
#1 = AXIS2_PLACEMENT_3D ( 'NONE', #153, #229, #115 ) ;
#2 = DIRECTION ( 'NONE',  ( -3.491481338843133355E-15, 1.224646799147353207E-16, -1.000000000000000000 ) ) ;
#3 = DIRECTION ( 'NONE',  ( 0.0000000000000000000, -1.000000000000000000, 0.0000000000000000000 ) ) ;
#4 = VERTEX_POINT ( 'NONE', #215 ) ;
#5 = APPROVAL_STATUS ( 'not_yet_approved' ) ;
#6 = AXIS2_PLACEMENT_3D ( 'NONE', #31, #206, #18 ) ;
#7 = ORIENTED_EDGE ( 'NONE', *, *, #210, .F. ) ;
#8 = LOCAL_TIME ( 10, 45, 37.00000000000000000, #52 ) ;
#9 = PERSON_AND_ORGANIZATION ( #169, #22 ) ;
#10 = ORIENTED_EDGE ( 'NONE', *, *, #12, .F. ) ;
#11 = DIRECTION ( 'NONE',  ( -3.491481338843133355E-15, 1.224646799147353207E-16, -1.000000000000000000 ) ) ;
#12 = EDGE_CURVE ( 'NONE', #174, #174, #17, .T. ) ;
#13 = FACE_OUTER_BOUND ( 'NONE', #240, .T. ) ;
#14 = AXIS2_PLACEMENT_3D ( 'NONE', #39, #62, #80 ) ;
#15 = CC_DESIGN_PERSON_AND_ORGANIZATION_ASSIGNMENT ( #100, #146, ( #41 ) ) ;
#16 = CARTESIAN_POINT ( 'NONE',  ( 0.0000000000000000000, 0.0000000000000000000, 0.0000000000000000000 ) ) ;
#17 = CIRCLE ( 'NONE', #192, 0.3500000000000000333 ) ;
#18 = DIRECTION ( 'NONE',  ( 0.0000000000000000000, 1.000000000000000000, 0.0000000000000000000 ) ) ;
#19 = VERTEX_POINT ( 'NONE', #144 ) ;
#20 = CARTESIAN_POINT ( 'NONE',  ( 1.222018468595096359E-14, -0.3500000000000004774, 3.499999999999999112 ) ) ;
#21 = COORDINATED_UNIVERSAL_TIME_OFFSET ( 1, 0, .AHEAD. ) ;
#22 = ORGANIZATION ( 'UNSPECIFIED', 'UNSPECIFIED', '' ) ;
#23 = FACE_OUTER_BOUND ( 'NONE', #236, .T. ) ;
#24 = AXIS2_PLACEMENT_3D ( 'NONE', #155, #208, #132 ) ;
#25 = APPROVAL_PERSON_ORGANIZATION ( #151, #76, #205 ) ;
#26 = ADVANCED_FACE ( 'NONE', ( #188 ), #113, .T. ) ;
#27 = ORIENTED_EDGE ( 'NONE', *, *, #61, .F. ) ;
#28 = COORDINATED_UNIVERSAL_TIME_OFFSET ( 1, 0, .AHEAD. ) ;
#29 = ADVANCED_BREP_SHAPE_REPRESENTATION ( '57162', ( #88, #163, #137 ), #101 ) ;
#30 = FACE_OUTER_BOUND ( 'NONE', #81, .T. ) ;
#31 = CARTESIAN_POINT ( 'NONE',  ( 1.326762908760390423E-13, -4.653657836759941941E-15, 38.00000000000000000 ) ) ;
#32 = UNCERTAINTY_MEASURE_WITH_UNIT (LENGTH_MEASURE( 1.000000000000000082E-05 ), #197, 'distance_accuracy_value', 'NONE');
#33 = DIRECTION ( 'NONE',  ( -4.256963957985710640E-31, -1.000000000000000000, -1.219242935835427642E-16 ) ) ;
#34 = CC_DESIGN_PERSON_AND_ORGANIZATION_ASSIGNMENT ( #221, #87, ( #142 ) ) ;
#35 = FACE_OUTER_BOUND ( 'NONE', #159, .T. ) ;
#36 = TOROIDAL_SURFACE ( 'NONE', #77, 2.350000000000000089, 2.000000000000000000 ) ;
#37 = CYLINDRICAL_SURFACE ( 'NONE', #213, 0.3500000000000000333 ) ;
#38 = LOCAL_TIME ( 10, 45, 37.00000000000000000, #28 ) ;
#39 = CARTESIAN_POINT ( 'NONE',  ( 1.326762908760390423E-13, -4.653657836759941941E-15, 38.00000000000000000 ) ) ;
#40 = CARTESIAN_POINT ( 'NONE',  ( 4.115483852604712989E-14, -1.437147768487186552E-15, 11.78721423144806657 ) ) ;
#41 = PRODUCT ( '57162', '57162', '', ( #177 ) ) ;
#42 =( NAMED_UNIT ( * ) SI_UNIT ( $, .STERADIAN. ) SOLID_ANGLE_UNIT ( ) );
#43 = APPROVAL_PERSON_ORGANIZATION ( #179, #152, #232 ) ;
#44 = EDGE_LOOP ( 'NONE', ( #47 ) ) ;
#45 = DATE_AND_TIME ( #219, #185 ) ;
#46 = DIRECTION ( 'NONE',  ( 1.000000000000000000, 0.0000000000000000000, 0.0000000000000000000 ) ) ;
#47 = ORIENTED_EDGE ( 'NONE', *, *, #73, .F. ) ;
#48 = ADVANCED_FACE ( 'NONE', ( #30, #193 ), #37, .T. ) ;
#49 = SHAPE_DEFINITION_REPRESENTATION ( #143, #29 ) ;
#50 = AXIS2_PLACEMENT_3D ( 'NONE', #54, #134, #71 ) ;
#51 = ORIENTED_EDGE ( 'NONE', *, *, #125, .T. ) ;
#52 = COORDINATED_UNIVERSAL_TIME_OFFSET ( 1, 0, .AHEAD. ) ;
#53 = FACE_OUTER_BOUND ( 'NONE', #44, .T. ) ;
#54 = CARTESIAN_POINT ( 'NONE',  ( 1.326762908760390423E-13, 8.998558695971062171E-33, 38.00000000000000000 ) ) ;
#55 = CARTESIAN_POINT ( 'NONE',  ( 2.812445277580559894E-14, -9.821201101564487210E-16, 8.055163423879088569 ) ) ;
#56 = CIRCLE ( 'NONE', #72, 1.499999999999997558 ) ;
#57 = DIRECTION ( 'NONE',  ( -4.318010611786305654E-31, -1.000000000000000000, -1.219242935835426903E-16 ) ) ;
#58 = CC_DESIGN_PERSON_AND_ORGANIZATION_ASSIGNMENT ( #224, #183, ( #117 ) ) ;
#59 = DIRECTION ( 'NONE',  ( 3.491481338843133355E-15, -1.219242935835426903E-16, 1.000000000000000000 ) ) ;
#60 = CALENDAR_DATE ( 2021, 1, 11 ) ;
#61 = EDGE_CURVE ( 'NONE', #214, #214, #84, .T. ) ;
#62 = DIRECTION ( 'NONE',  ( -3.491481338843133355E-15, 1.224646799147353207E-16, -1.000000000000000000 ) ) ;
#63 = COORDINATED_UNIVERSAL_TIME_OFFSET ( 1, 0, .AHEAD. ) ;
#64 = FACE_BOUND ( 'NONE', #235, .T. ) ;
#65 = APPROVAL_DATE_TIME ( #111, #175 ) ;
#66 = APPLICATION_CONTEXT ( 'configuration controlled 3d designs of mechanical parts and assemblies' ) ;
#67 = ADVANCED_FACE ( 'NONE', ( #139 ), #170, .F. ) ;
#68 = APPROVAL_ROLE ( '' ) ;
#69 = CYLINDRICAL_SURFACE ( 'NONE', #160, 1.499999999999995781 ) ;
#70 = DIRECTION ( 'NONE',  ( 0.0000000000000000000, 1.000000000000000000, 0.0000000000000000000 ) ) ;
#71 = DIRECTION ( 'NONE',  ( 4.275831445896958607E-31, 1.000000000000000000, 1.224646799147353207E-16 ) ) ;
#72 = AXIS2_PLACEMENT_3D ( 'NONE', #225, #11, #70 ) ;
#73 = EDGE_CURVE ( 'NONE', #127, #127, #97, .T. ) ;
#74 = CLOSED_SHELL ( 'NONE', ( #26, #48, #204 ) ) ;
#75 = DIRECTION ( 'NONE',  ( 4.275831445896958607E-31, 1.000000000000000000, 1.224646799147353207E-16 ) ) ;
#76 = APPROVAL ( #166, 'UNSPECIFIED' ) ;
#77 = AXIS2_PLACEMENT_3D ( 'NONE', #187, #167, #57 ) ;
#78 = APPLICATION_PROTOCOL_DEFINITION ( 'international standard', 'config_control_design', 1994, #66 ) ;
#79 = DIRECTION ( 'NONE',  ( 0.0000000000000000000, -1.000000000000000000, 0.0000000000000000000 ) ) ;
#80 = DIRECTION ( 'NONE',  ( 0.0000000000000000000, 1.000000000000000000, 0.0000000000000000000 ) ) ;
#81 = EDGE_LOOP ( 'NONE', ( #105 ) ) ;
#82 = FACE_OUTER_BOUND ( 'NONE', #147, .T. ) ;
#83 = CC_DESIGN_PERSON_AND_ORGANIZATION_ASSIGNMENT ( #9, #130, ( #117 ) ) ;
#84 = CIRCLE ( 'NONE', #140, 0.4181483474218596896 ) ;
#85 = ORIENTED_EDGE ( 'NONE', *, *, #141, .F. ) ;
#86 = APPROVAL_STATUS ( 'not_yet_approved' ) ;
#87 = PERSON_AND_ORGANIZATION_ROLE ( 'classification_officer' ) ;
#88 = MANIFOLD_SOLID_BREP ( 'Corps-Déplacer/Copier1[1]', #196 ) ;
#89 = CONICAL_SURFACE ( 'NONE', #14, 1.199999999999997957, 0.7853981633974450594 ) ;
#90 = DIRECTION ( 'NONE',  ( -4.256963957985708889E-31, -1.000000000000000000, -1.219242935835427149E-16 ) ) ;
#91 = DIRECTION ( 'NONE',  ( 0.0000000000000000000, -1.000000000000000000, 0.0000000000000000000 ) ) ;
#92 = DIRECTION ( 'NONE',  ( 3.491481338843133355E-15, -1.219242935835426903E-16, 1.000000000000000000 ) ) ;
#93 = CC_DESIGN_DATE_AND_TIME_ASSIGNMENT ( #106, #131, ( #142 ) ) ;
#94 = AXIS2_PLACEMENT_3D ( 'NONE', #138, #241, #154 ) ;
#95 = CC_DESIGN_APPROVAL ( #175, ( #117 ) ) ;
#96 = CARTESIAN_POINT ( 'NONE',  ( 1.402750841817621366E-14, -4.898476860225814438E-16, 4.017638090205026380 ) ) ;
#97 = CIRCLE ( 'NONE', #184, 0.3500000000000000333 ) ;
#98 = FACE_OUTER_BOUND ( 'NONE', #211, .T. ) ;
#99 = CARTESIAN_POINT ( 'NONE',  ( 2.812445277580559894E-14, -1.499999999999996669, 8.055163423879088569 ) ) ;
#100 = PERSON_AND_ORGANIZATION ( #169, #22 ) ;
#101 =( GEOMETRIC_REPRESENTATION_CONTEXT ( 3 ) GLOBAL_UNCERTAINTY_ASSIGNED_CONTEXT ( ( #32 ) ) GLOBAL_UNIT_ASSIGNED_CONTEXT ( ( #197, #103, #42 ) ) REPRESENTATION_CONTEXT ( 'NONE', 'WORKASPACE' ) );
#102 = CC_DESIGN_APPROVAL ( #152, ( #223 ) ) ;
#103 =( NAMED_UNIT ( * ) PLANE_ANGLE_UNIT ( ) SI_UNIT ( $, .RADIAN. ) );
#104 = CARTESIAN_POINT ( 'NONE',  ( 1.222018468595096359E-14, -0.3500000000000004774, 3.499999999999999112 ) ) ;
#105 = ORIENTED_EDGE ( 'NONE', *, *, #12, .T. ) ;
#106 = DATE_AND_TIME ( #237, #8 ) ;
#107 = CONICAL_SURFACE ( 'NONE', #116, 2.499999999999996447, 0.2617993877991429130 ) ;
#108 = CIRCLE ( 'NONE', #168, 1.499999999999995781 ) ;
#109 = ADVANCED_FACE ( 'NONE', ( #13, #122 ), #69, .T. ) ;
#110 = ORIENTED_EDGE ( 'NONE', *, *, #61, .T. ) ;
#111 = DATE_AND_TIME ( #201, #38 ) ;
#112 = ORIENTED_EDGE ( 'NONE', *, *, #210, .T. ) ;
#113 = PLANE ( 'NONE',  #1 ) ;
#114 = FACE_OUTER_BOUND ( 'NONE', #158, .T. ) ;
#115 = DIRECTION ( 'NONE',  ( -4.275831445896958607E-31, -1.000000000000000000, -1.224646799147353207E-16 ) ) ;
#116 = AXIS2_PLACEMENT_3D ( 'NONE', #40, #230, #79 ) ;
#117 = PRODUCT_DEFINITION_FORMATION_WITH_SPECIFIED_SOURCE ( 'ANY', '', #41, .NOT_KNOWN. ) ;
#118 = EDGE_CURVE ( 'NONE', #173, #173, #234, .T. ) ;
#119 = FACE_BOUND ( 'NONE', #126, .T. ) ;
#120 = CIRCLE ( 'NONE', #6, 1.199999999999997957 ) ;
#121 = LOCAL_TIME ( 10, 45, 37.00000000000000000, #162 ) ;
#122 = FACE_OUTER_BOUND ( 'NONE', #200, .T. ) ;
#123 = DATE_AND_TIME ( #60, #171 ) ;
#124 = APPLICATION_PROTOCOL_DEFINITION ( 'international standard', 'config_control_design', 1994, #216 ) ;
#125 = EDGE_CURVE ( 'NONE', #4, #4, #56, .T. ) ;
#126 = EDGE_LOOP ( 'NONE', ( #110 ) ) ;
#127 = VERTEX_POINT ( 'NONE', #20 ) ;
#128 = ADVANCED_FACE ( 'NONE', ( #53 ), #172, .F. ) ;
#129 = ORIENTED_EDGE ( 'NONE', *, *, #118, .F. ) ;
#130 = PERSON_AND_ORGANIZATION_ROLE ( 'design_supplier' ) ;
#131 = DATE_TIME_ROLE ( 'classification_date' ) ;
#132 = DIRECTION ( 'NONE',  ( -4.275831445896958607E-31, -1.000000000000000000, -1.224646799147353207E-16 ) ) ;
#133 = DATE_AND_TIME ( #203, #121 ) ;
#134 = DIRECTION ( 'NONE',  ( -3.491481338843133355E-15, 1.224646799147353207E-16, -1.000000000000000000 ) ) ;
#135 = DIRECTION ( 'NONE',  ( 0.0000000000000000000, -1.000000000000000000, 0.0000000000000000000 ) ) ;
#136 = PRODUCT_RELATED_PRODUCT_CATEGORY ( 'detail', '', ( #41 ) ) ;
#137 = AXIS2_PLACEMENT_3D ( 'NONE', #220, #157, #46 ) ;
#138 = CARTESIAN_POINT ( 'NONE',  ( -6.413803915257455362E-31, 2.249659577954771652E-32, -1.836986451539392583E-16 ) ) ;
#139 = FACE_OUTER_BOUND ( 'NONE', #180, .T. ) ;
#140 = AXIS2_PLACEMENT_3D ( 'NONE', #96, #226, #239 ) ;
#141 = EDGE_CURVE ( 'NONE', #19, #19, #120, .T. ) ;
#142 = SECURITY_CLASSIFICATION ( '', '', #148 ) ;
#143 = PRODUCT_DEFINITION_SHAPE ( 'NONE', 'NONE',  #223 ) ;
#144 = CARTESIAN_POINT ( 'NONE',  ( 1.326762908760390423E-13, 1.199999999999993294, 38.00000000000000000 ) ) ;
#145 = CARTESIAN_POINT ( 'NONE',  ( -2.222122976995031517E-30, -0.3500000000000000333, -6.364413156884606093E-16 ) ) ;
#146 = PERSON_AND_ORGANIZATION_ROLE ( 'design_owner' ) ;
#147 = EDGE_LOOP ( 'NONE', ( #112 ) ) ;
#148 = SECURITY_CLASSIFICATION_LEVEL ( 'unclassified' ) ;
#149 = APPROVAL_PERSON_ORGANIZATION ( #217, #175, #68 ) ;
#150 = CARTESIAN_POINT ( 'NONE',  ( 0.0000000000000000000, 0.0000000000000000000, 0.0000000000000000000 ) ) ;
#151 = PERSON_AND_ORGANIZATION ( #169, #22 ) ;
#152 = APPROVAL ( #5, 'UNSPECIFIED' ) ;
#153 = CARTESIAN_POINT ( 'NONE',  ( 1.222018468595096517E-14, 1.124819836996387869E-32, 3.499999999999999556 ) ) ;
#154 = DIRECTION ( 'NONE',  ( -4.275831445896958607E-31, -1.000000000000000000, -1.224646799147353207E-16 ) ) ;
#155 = CARTESIAN_POINT ( 'NONE',  ( 1.222018468595096517E-14, 1.124819836996387869E-32, 3.499999999999999556 ) ) ;
#156 = DIRECTION ( 'NONE',  ( 3.491481338843133355E-15, -1.219242935835426903E-16, 1.000000000000000000 ) ) ;
#157 = DIRECTION ( 'NONE',  ( 0.0000000000000000000, 0.0000000000000000000, 1.000000000000000000 ) ) ;
#158 = EDGE_LOOP ( 'NONE', ( #27 ) ) ;
#159 = EDGE_LOOP ( 'NONE', ( #10 ) ) ;
#160 = AXIS2_PLACEMENT_3D ( 'NONE', #150, #2, #75 ) ;
#161 = PERSON_AND_ORGANIZATION ( #169, #22 ) ;
#162 = COORDINATED_UNIVERSAL_TIME_OFFSET ( 1, 0, .AHEAD. ) ;
#163 = MANIFOLD_SOLID_BREP ( 'Corps-Déplacer/Copier1[2]', #74 ) ;
#164 = CARTESIAN_POINT ( 'NONE',  ( 1.222018468595096359E-14, -4.267350275423993666E-16, 3.499999999999999112 ) ) ;
#165 = CC_DESIGN_PERSON_AND_ORGANIZATION_ASSIGNMENT ( #161, #195, ( #223 ) ) ;
#166 = APPROVAL_STATUS ( 'not_yet_approved' ) ;
#167 = DIRECTION ( 'NONE',  ( 3.491481338843133355E-15, -1.219242935835426903E-16, 1.000000000000000000 ) ) ;
#168 = AXIS2_PLACEMENT_3D ( 'NONE', #55, #227, #135 ) ;
#169 = PERSON ( 'UNSPECIFIED', 'UNSPECIFIED', 'UNSPECIFIED', ('UNSPECIFIED'), ('UNSPECIFIED'), ('UNSPECIFIED') ) ;
#170 = PLANE ( 'NONE',  #50 ) ;
#171 = LOCAL_TIME ( 10, 45, 37.00000000000000000, #21 ) ;
#172 = PLANE ( 'NONE',  #24 ) ;
#173 = VERTEX_POINT ( 'NONE', #104 ) ;
#174 = VERTEX_POINT ( 'NONE', #145 ) ;
#175 = APPROVAL ( #86, 'UNSPECIFIED' ) ;
#176 = DATE_TIME_ROLE ( 'creation_date' ) ;
#177 = MECHANICAL_CONTEXT ( 'NONE', #216, 'mechanical' ) ;
#178 = ORIENTED_EDGE ( 'NONE', *, *, #73, .T. ) ;
#179 = PERSON_AND_ORGANIZATION ( #169, #22 ) ;
#180 = EDGE_LOOP ( 'NONE', ( #85 ) ) ;
#181 = EDGE_LOOP ( 'NONE', ( #129 ) ) ;
#182 = ADVANCED_FACE ( 'NONE', ( #98, #114 ), #36, .F. ) ;
#183 = PERSON_AND_ORGANIZATION_ROLE ( 'creator' ) ;
#184 = AXIS2_PLACEMENT_3D ( 'NONE', #164, #191, #3 ) ;
#185 = LOCAL_TIME ( 10, 45, 37.00000000000000000, #63 ) ;
#186 = CARTESIAN_POINT ( 'NONE',  ( 1.222018468595096359E-14, -4.267350275423993666E-16, 3.499999999999999112 ) ) ;
#187 = CARTESIAN_POINT ( 'NONE',  ( 1.222018468595096359E-14, -4.336808689942017736E-16, 3.499999999999999112 ) ) ;
#188 = FACE_OUTER_BOUND ( 'NONE', #198, .T. ) ;
#189 = AXIS2_PLACEMENT_3D ( 'NONE', #186, #92, #91 ) ;
#190 = CC_DESIGN_DATE_AND_TIME_ASSIGNMENT ( #123, #176, ( #223 ) ) ;
#191 = DIRECTION ( 'NONE',  ( 3.491481338843133355E-15, -1.219242935835426903E-16, 1.000000000000000000 ) ) ;
#192 = AXIS2_PLACEMENT_3D ( 'NONE', #209, #156, #33 ) ;
#193 = FACE_OUTER_BOUND ( 'NONE', #181, .T. ) ;
#194 = VERTEX_POINT ( 'NONE', #99 ) ;
#195 = PERSON_AND_ORGANIZATION_ROLE ( 'creator' ) ;
#196 = CLOSED_SHELL ( 'NONE', ( #109, #238, #67, #233, #182, #128 ) ) ;
#197 =( LENGTH_UNIT ( ) NAMED_UNIT ( * ) SI_UNIT ( .MILLI., .METRE. ) );
#198 = EDGE_LOOP ( 'NONE', ( #212 ) ) ;
#199 = CARTESIAN_POINT ( 'NONE',  ( 1.402750841817621366E-14, -0.4181483474218601892, 4.017638090205026380 ) ) ;
#200 = EDGE_LOOP ( 'NONE', ( #7 ) ) ;
#201 = CALENDAR_DATE ( 2021, 1, 11 ) ;
#202 = ORIENTED_EDGE ( 'NONE', *, *, #141, .T. ) ;
#203 = CALENDAR_DATE ( 2021, 1, 11 ) ;
#204 = ADVANCED_FACE ( 'NONE', ( #35 ), #228, .F. ) ;
#205 = APPROVAL_ROLE ( '' ) ;
#206 = DIRECTION ( 'NONE',  ( -3.491481338843133355E-15, 1.224646799147353207E-16, -1.000000000000000000 ) ) ;
#207 = APPROVAL_DATE_TIME ( #133, #76 ) ;
#208 = DIRECTION ( 'NONE',  ( 3.491481338843133355E-15, -1.224646799147353207E-16, 1.000000000000000000 ) ) ;
#209 = CARTESIAN_POINT ( 'NONE',  ( -2.073129238465531832E-30, 7.239472114464997723E-32, -5.937678129342206775E-16 ) ) ;
#210 = EDGE_CURVE ( 'NONE', #194, #194, #108, .T. ) ;
#211 = EDGE_LOOP ( 'NONE', ( #178 ) ) ;
#212 = ORIENTED_EDGE ( 'NONE', *, *, #118, .T. ) ;
#213 = AXIS2_PLACEMENT_3D ( 'NONE', #16, #59, #90 ) ;
#214 = VERTEX_POINT ( 'NONE', #199 ) ;
#215 = CARTESIAN_POINT ( 'NONE',  ( 1.316288464743861212E-13, 1.499999999999993117, 37.69999999999999574 ) ) ;
#216 = APPLICATION_CONTEXT ( 'configuration controlled 3d designs of mechanical parts and assemblies' ) ;
#217 = PERSON_AND_ORGANIZATION ( #169, #22 ) ;
#218 = CC_DESIGN_APPROVAL ( #76, ( #142 ) ) ;
#219 = CALENDAR_DATE ( 2021, 1, 11 ) ;
#220 = CARTESIAN_POINT ( 'NONE',  ( 0.0000000000000000000, 0.0000000000000000000, 0.0000000000000000000 ) ) ;
#221 = PERSON_AND_ORGANIZATION ( #169, #22 ) ;
#222 = ORIENTED_EDGE ( 'NONE', *, *, #125, .F. ) ;
#223 = PRODUCT_DEFINITION ( 'UNKNOWN', '', #117, #242 ) ;
#224 = PERSON_AND_ORGANIZATION ( #169, #22 ) ;
#225 = CARTESIAN_POINT ( 'NONE',  ( 1.316288464743861212E-13, -4.616918432785521081E-15, 37.69999999999999574 ) ) ;
#226 = DIRECTION ( 'NONE',  ( 3.491481338843133355E-15, -1.219242935835426903E-16, 1.000000000000000000 ) ) ;
#227 = DIRECTION ( 'NONE',  ( -3.491481338843133355E-15, 1.219242935835426903E-16, -1.000000000000000000 ) ) ;
#228 = PLANE ( 'NONE',  #94 ) ;
#229 = DIRECTION ( 'NONE',  ( 3.491481338843133355E-15, -1.224646799147353207E-16, 1.000000000000000000 ) ) ;
#230 = DIRECTION ( 'NONE',  ( 3.491481338843133355E-15, -1.219242935835426903E-16, 1.000000000000000000 ) ) ;
#231 = APPROVAL_DATE_TIME ( #45, #152 ) ;
#232 = APPROVAL_ROLE ( '' ) ;
#233 = ADVANCED_FACE ( 'NONE', ( #119, #82 ), #107, .T. ) ;
#234 = CIRCLE ( 'NONE', #189, 0.3500000000000000333 ) ;
#235 = EDGE_LOOP ( 'NONE', ( #202 ) ) ;
#236 = EDGE_LOOP ( 'NONE', ( #222 ) ) ;
#237 = CALENDAR_DATE ( 2021, 1, 11 ) ;
#238 = ADVANCED_FACE ( 'NONE', ( #23, #64 ), #89, .T. ) ;
#239 = DIRECTION ( 'NONE',  ( 0.0000000000000000000, -1.000000000000000000, 0.0000000000000000000 ) ) ;
#240 = EDGE_LOOP ( 'NONE', ( #51 ) ) ;
#241 = DIRECTION ( 'NONE',  ( 3.491481338843133355E-15, -1.224646799147353207E-16, 1.000000000000000000 ) ) ;
#242 = DESIGN_CONTEXT ( 'detailed design', #66, 'design' ) ;
#243 = CC_DESIGN_SECURITY_CLASSIFICATION ( #142, ( #117 ) ) ;
ENDSEC;
END-ISO-10303-21;
