ISO-10303-21;
HEADER;
FILE_DESCRIPTION (( 'STEP AP203' ),
    '1' );
FILE_NAME ('57137.step',
    '2021-11-09T09:09:54',
    ( '' ),
    ( '' ),
    'SwSTEP 2.0',
    'SolidWorks 2019',
    '' );
FILE_SCHEMA (( 'CONFIG_CONTROL_DESIGN' ));
ENDSEC;

DATA;
#1 = PERSON_AND_ORGANIZATION_ROLE ( 'design_owner' ) ;
#2 = PLANE ( 'NONE',  #180 ) ;
#3 = MANIFOLD_SOLID_BREP ( 'Corps-Déplacer/Copier1[1]', #122 ) ;
#4 = APPROVAL_DATE_TIME ( #17, #29 ) ;
#5 = EDGE_LOOP ( 'NONE', ( #105 ) ) ;
#6 = ORIENTED_EDGE ( 'NONE', *, *, #8, .T. ) ;
#7 = UNCERTAINTY_MEASURE_WITH_UNIT (LENGTH_MEASURE( 1.000000000000000082E-05 ), #157, 'distance_accuracy_value', 'NONE');
#8 = EDGE_CURVE ( 'NONE', #37, #37, #28, .T. ) ;
#9 = LOCAL_TIME ( 10, 9, 54.00000000000000000, #16 ) ;
#10 = DIRECTION ( 'NONE',  ( -3.491481338843133355E-15, 1.224646799147353207E-16, -1.000000000000000000 ) ) ;
#11 = CARTESIAN_POINT ( 'NONE',  ( 3.474023932148917752E-13, 5.999999999999991118, 99.50000000000000000 ) ) ;
#12 = FACE_BOUND ( 'NONE', #22, .T. ) ;
#13 =( GEOMETRIC_REPRESENTATION_CONTEXT ( 3 ) GLOBAL_UNCERTAINTY_ASSIGNED_CONTEXT ( ( #7 ) ) GLOBAL_UNIT_ASSIGNED_CONTEXT ( ( #157, #168, #152 ) ) REPRESENTATION_CONTEXT ( 'NONE', 'WORKASPACE' ) );
#14 = DIRECTION ( 'NONE',  ( 4.275831445896958607E-31, 1.000000000000000000, 1.224646799147353207E-16 ) ) ;
#15 = APPROVAL ( #202, 'UNSPECIFIED' ) ;
#16 = COORDINATED_UNIVERSAL_TIME_OFFSET ( 1, 0, .AHEAD. ) ;
#17 = DATE_AND_TIME ( #86, #181 ) ;
#18 = COORDINATED_UNIVERSAL_TIME_OFFSET ( 1, 0, .AHEAD. ) ;
#19 = PERSON_AND_ORGANIZATION_ROLE ( 'design_supplier' ) ;
#20 = CIRCLE ( 'NONE', #75, 6.000000000000000000 ) ;
#21 = EDGE_LOOP ( 'NONE', ( #6 ) ) ;
#22 = EDGE_LOOP ( 'NONE', ( #151 ) ) ;
#23 = CC_DESIGN_APPROVAL ( #85, ( #166 ) ) ;
#24 = ADVANCED_FACE ( 'NONE', ( #121 ), #2, .F. ) ;
#25 = APPROVAL_PERSON_ORGANIZATION ( #115, #29, #161 ) ;
#26 = DIRECTION ( 'NONE',  ( 1.000000000000000000, 0.0000000000000000000, 0.0000000000000000000 ) ) ;
#27 = CARTESIAN_POINT ( 'NONE',  ( 3.491481338843133355E-13, 4.124339402320093095E-32, 100.0000000000000000 ) ) ;
#28 = CIRCLE ( 'NONE', #39, 6.000000000000000000 ) ;
#29 = APPROVAL ( #176, 'UNSPECIFIED' ) ;
#30 = PRODUCT ( '57137', '57137', '', ( #92 ) ) ;
#31 = APPROVAL_DATE_TIME ( #130, #85 ) ;
#32 = ORIENTED_EDGE ( 'NONE', *, *, #98, .F. ) ;
#33 = DIRECTION ( 'NONE',  ( -3.491481338843133355E-15, 1.224646799147353207E-16, -1.000000000000000000 ) ) ;
#34 = SECURITY_CLASSIFICATION ( '', '', #66 ) ;
#35 = CC_DESIGN_PERSON_AND_ORGANIZATION_ASSIGNMENT ( #132, #1, ( #30 ) ) ;
#36 = CC_DESIGN_APPROVAL ( #15, ( #149 ) ) ;
#37 = VERTEX_POINT ( 'NONE', #199 ) ;
#38 = FACE_OUTER_BOUND ( 'NONE', #165, .T. ) ;
#39 = AXIS2_PLACEMENT_3D ( 'NONE', #102, #162, #84 ) ;
#40 = DIRECTION ( 'NONE',  ( 4.275831445896958607E-31, 1.000000000000000000, 1.224646799147353207E-16 ) ) ;
#41 = CARTESIAN_POINT ( 'NONE',  ( 0.0000000000000000000, 6.000000000000000000, 0.0000000000000000000 ) ) ;
#42 = ORGANIZATION ( 'UNSPECIFIED', 'UNSPECIFIED', '' ) ;
#43 = PERSON_AND_ORGANIZATION ( #87, #42 ) ;
#44 = EDGE_CURVE ( 'NONE', #60, #60, #137, .T. ) ;
#45 = COORDINATED_UNIVERSAL_TIME_OFFSET ( 1, 0, .AHEAD. ) ;
#46 = AXIS2_PLACEMENT_3D ( 'NONE', #59, #80, #143 ) ;
#47 = CALENDAR_DATE ( 2021, 9, 11 ) ;
#48 = DIRECTION ( 'NONE',  ( 3.491481338843133355E-15, -1.224646799147353207E-16, 1.000000000000000000 ) ) ;
#49 = DIRECTION ( 'NONE',  ( -4.275831445896958607E-31, -1.000000000000000000, -1.224646799147353207E-16 ) ) ;
#50 = APPLICATION_CONTEXT ( 'configuration controlled 3d designs of mechanical parts and assemblies' ) ;
#51 = ORIENTED_EDGE ( 'NONE', *, *, #63, .F. ) ;
#52 = DIRECTION ( 'NONE',  ( 3.491481338843133355E-15, -1.224646799147353207E-16, 1.000000000000000000 ) ) ;
#53 = ORIENTED_EDGE ( 'NONE', *, *, #83, .F. ) ;
#54 = CARTESIAN_POINT ( 'NONE',  ( 1.571166602479409884E-13, -5.510910596163089556E-15, 45.00000000000000000 ) ) ;
#55 = CC_DESIGN_PERSON_AND_ORGANIZATION_ASSIGNMENT ( #144, #81, ( #149 ) ) ;
#56 = CONICAL_SURFACE ( 'NONE', #201, 6.000000000000003553, 0.7853981633974482790 ) ;
#57 = CC_DESIGN_PERSON_AND_ORGANIZATION_ASSIGNMENT ( #150, #19, ( #149 ) ) ;
#58 = PLANE ( 'NONE',  #156 ) ;
#59 = CARTESIAN_POINT ( 'NONE',  ( 0.0000000000000000000, 0.0000000000000000000, 0.0000000000000000000 ) ) ;
#60 = VERTEX_POINT ( 'NONE', #41 ) ;
#61 = FACE_OUTER_BOUND ( 'NONE', #21, .T. ) ;
#62 = APPROVAL_PERSON_ORGANIZATION ( #146, #85, #65 ) ;
#63 = EDGE_CURVE ( 'NONE', #198, #198, #20, .T. ) ;
#64 = ADVANCED_BREP_SHAPE_REPRESENTATION ( '57137', ( #3, #142, #96 ), #13 ) ;
#65 = APPROVAL_ROLE ( '' ) ;
#66 = SECURITY_CLASSIFICATION_LEVEL ( 'unclassified' ) ;
#67 = APPLICATION_PROTOCOL_DEFINITION ( 'international standard', 'config_control_design', 1994, #50 ) ;
#68 = CARTESIAN_POINT ( 'NONE',  ( 1.571166602479409884E-13, 4.499279347985565160E-32, 45.00000000000000000 ) ) ;
#69 = CLOSED_SHELL ( 'NONE', ( #125, #175, #94 ) ) ;
#70 = ORIENTED_EDGE ( 'NONE', *, *, #8, .F. ) ;
#71 = DIRECTION ( 'NONE',  ( 0.0000000000000000000, 1.000000000000000000, 0.0000000000000000000 ) ) ;
#72 = ORIENTED_EDGE ( 'NONE', *, *, #44, .F. ) ;
#73 = PRODUCT_DEFINITION_SHAPE ( 'NONE', 'NONE',  #166 ) ;
#74 = CARTESIAN_POINT ( 'NONE',  ( 3.491481338843133355E-13, -1.224646799147353217E-14, 100.0000000000000000 ) ) ;
#75 = AXIS2_PLACEMENT_3D ( 'NONE', #54, #107, #89 ) ;
#76 = CC_DESIGN_PERSON_AND_ORGANIZATION_ASSIGNMENT ( #147, #100, ( #166 ) ) ;
#77 = DESIGN_CONTEXT ( 'detailed design', #50, 'design' ) ;
#78 = AXIS2_PLACEMENT_3D ( 'NONE', #123, #52, #49 ) ;
#79 = VERTEX_POINT ( 'NONE', #197 ) ;
#80 = DIRECTION ( 'NONE',  ( -3.491481338843133355E-15, 1.224646799147353207E-16, -1.000000000000000000 ) ) ;
#81 = PERSON_AND_ORGANIZATION_ROLE ( 'creator' ) ;
#82 = SHAPE_DEFINITION_REPRESENTATION ( #73, #64 ) ;
#83 = EDGE_CURVE ( 'NONE', #79, #79, #167, .T. ) ;
#84 = DIRECTION ( 'NONE',  ( 0.0000000000000000000, 1.000000000000000000, 0.0000000000000000000 ) ) ;
#85 = APPROVAL ( #114, 'UNSPECIFIED' ) ;
#86 = CALENDAR_DATE ( 2021, 9, 11 ) ;
#87 = PERSON ( 'UNSPECIFIED', 'UNSPECIFIED', 'UNSPECIFIED', ('UNSPECIFIED'), ('UNSPECIFIED'), ('UNSPECIFIED') ) ;
#88 = ORIENTED_EDGE ( 'NONE', *, *, #44, .T. ) ;
#89 = DIRECTION ( 'NONE',  ( 0.0000000000000000000, 1.000000000000000000, 0.0000000000000000000 ) ) ;
#90 = CC_DESIGN_DATE_AND_TIME_ASSIGNMENT ( #164, #103, ( #166 ) ) ;
#91 = CIRCLE ( 'NONE', #159, 6.000000000000003553 ) ;
#92 = MECHANICAL_CONTEXT ( 'NONE', #163, 'mechanical' ) ;
#93 = DIRECTION ( 'NONE',  ( -3.491481338843133355E-15, 1.224646799147353207E-16, -1.000000000000000000 ) ) ;
#94 = ADVANCED_FACE ( 'NONE', ( #135 ), #133, .T. ) ;
#95 = CARTESIAN_POINT ( 'NONE',  ( 1.571166602479409884E-13, 5.999999999999994671, 45.00000000000000000 ) ) ;
#96 = AXIS2_PLACEMENT_3D ( 'NONE', #108, #169, #26 ) ;
#97 = FACE_OUTER_BOUND ( 'NONE', #136, .T. ) ;
#98 = EDGE_CURVE ( 'NONE', #111, #111, #91, .T. ) ;
#99 = CC_DESIGN_SECURITY_CLASSIFICATION ( #34, ( #149 ) ) ;
#100 = PERSON_AND_ORGANIZATION_ROLE ( 'creator' ) ;
#101 = COORDINATED_UNIVERSAL_TIME_OFFSET ( 1, 0, .AHEAD. ) ;
#102 = CARTESIAN_POINT ( 'NONE',  ( 1.571166602479409884E-13, -5.510910596163089556E-15, 45.00000000000000000 ) ) ;
#103 = DATE_TIME_ROLE ( 'creation_date' ) ;
#104 = DIRECTION ( 'NONE',  ( 4.275831445896959482E-31, 1.000000000000000000, 1.224646799147353207E-16 ) ) ;
#105 = ORIENTED_EDGE ( 'NONE', *, *, #98, .T. ) ;
#106 = ADVANCED_FACE ( 'NONE', ( #126 ), #184, .F. ) ;
#107 = DIRECTION ( 'NONE',  ( -3.491481338843133355E-15, 1.224646799147353207E-16, -1.000000000000000000 ) ) ;
#108 = CARTESIAN_POINT ( 'NONE',  ( 0.0000000000000000000, 0.0000000000000000000, 0.0000000000000000000 ) ) ;
#109 = DIRECTION ( 'NONE',  ( -3.491481338843133355E-15, 1.224646799147353207E-16, -1.000000000000000000 ) ) ;
#110 = FACE_OUTER_BOUND ( 'NONE', #191, .T. ) ;
#111 = VERTEX_POINT ( 'NONE', #11 ) ;
#112 = AXIS2_PLACEMENT_3D ( 'NONE', #178, #33, #104 ) ;
#113 = DATE_AND_TIME ( #188, #116 ) ;
#114 = APPROVAL_STATUS ( 'not_yet_approved' ) ;
#115 = PERSON_AND_ORGANIZATION ( #87, #42 ) ;
#116 = LOCAL_TIME ( 10, 9, 54.00000000000000000, #101 ) ;
#117 = CALENDAR_DATE ( 2021, 9, 11 ) ;
#118 = EDGE_LOOP ( 'NONE', ( #70 ) ) ;
#119 = DIRECTION ( 'NONE',  ( -4.275831445896958607E-31, -1.000000000000000000, -1.224646799147353207E-16 ) ) ;
#120 = ORIENTED_EDGE ( 'NONE', *, *, #63, .T. ) ;
#121 = FACE_OUTER_BOUND ( 'NONE', #134, .T. ) ;
#122 = CLOSED_SHELL ( 'NONE', ( #24, #139, #195, #106 ) ) ;
#123 = CARTESIAN_POINT ( 'NONE',  ( 1.571166602479409884E-13, 4.499279347985565160E-32, 45.00000000000000000 ) ) ;
#124 = CC_DESIGN_APPROVAL ( #29, ( #34 ) ) ;
#125 = ADVANCED_FACE ( 'NONE', ( #38 ), #58, .T. ) ;
#126 = FACE_OUTER_BOUND ( 'NONE', #148, .T. ) ;
#127 = APPROVAL_PERSON_ORGANIZATION ( #43, #15, #128 ) ;
#128 = APPROVAL_ROLE ( '' ) ;
#129 = APPROVAL_DATE_TIME ( #203, #15 ) ;
#130 = DATE_AND_TIME ( #47, #9 ) ;
#131 = LOCAL_TIME ( 10, 9, 54.00000000000000000, #45 ) ;
#132 = PERSON_AND_ORGANIZATION ( #87, #42 ) ;
#133 = PLANE ( 'NONE',  #78 ) ;
#134 = EDGE_LOOP ( 'NONE', ( #120 ) ) ;
#135 = FACE_OUTER_BOUND ( 'NONE', #118, .T. ) ;
#136 = EDGE_LOOP ( 'NONE', ( #72 ) ) ;
#137 = CIRCLE ( 'NONE', #112, 6.000000000000000000 ) ;
#138 = CYLINDRICAL_SURFACE ( 'NONE', #140, 6.000000000000001776 ) ;
#139 = ADVANCED_FACE ( 'NONE', ( #200, #110 ), #138, .T. ) ;
#140 = AXIS2_PLACEMENT_3D ( 'NONE', #155, #154, #14 ) ;
#141 = DIRECTION ( 'NONE',  ( -3.491481338843133355E-15, 1.224646799147353207E-16, -1.000000000000000000 ) ) ;
#142 = MANIFOLD_SOLID_BREP ( 'Corps-Déplacer/Copier1[2]', #69 ) ;
#143 = DIRECTION ( 'NONE',  ( 4.275831445896959482E-31, 1.000000000000000000, 1.224646799147353207E-16 ) ) ;
#144 = PERSON_AND_ORGANIZATION ( #87, #42 ) ;
#145 = CC_DESIGN_PERSON_AND_ORGANIZATION_ASSIGNMENT ( #158, #177, ( #34 ) ) ;
#146 = PERSON_AND_ORGANIZATION ( #87, #42 ) ;
#147 = PERSON_AND_ORGANIZATION ( #87, #42 ) ;
#148 = EDGE_LOOP ( 'NONE', ( #53 ) ) ;
#149 = PRODUCT_DEFINITION_FORMATION_WITH_SPECIFIED_SOURCE ( 'ANY', '', #30, .NOT_KNOWN. ) ;
#150 = PERSON_AND_ORGANIZATION ( #87, #42 ) ;
#151 = ORIENTED_EDGE ( 'NONE', *, *, #83, .T. ) ;
#152 =( NAMED_UNIT ( * ) SI_UNIT ( $, .STERADIAN. ) SOLID_ANGLE_UNIT ( ) );
#153 = CYLINDRICAL_SURFACE ( 'NONE', #46, 6.000000000000000000 ) ;
#154 = DIRECTION ( 'NONE',  ( -3.491481338843133355E-15, 1.224646799147353207E-16, -1.000000000000000000 ) ) ;
#155 = CARTESIAN_POINT ( 'NONE',  ( 0.0000000000000000000, 0.0000000000000000000, 0.0000000000000000000 ) ) ;
#156 = AXIS2_PLACEMENT_3D ( 'NONE', #183, #93, #40 ) ;
#157 =( LENGTH_UNIT ( ) NAMED_UNIT ( * ) SI_UNIT ( .MILLI., .METRE. ) );
#158 = PERSON_AND_ORGANIZATION ( #87, #42 ) ;
#159 = AXIS2_PLACEMENT_3D ( 'NONE', #179, #109, #173 ) ;
#160 = COORDINATED_UNIVERSAL_TIME_OFFSET ( 1, 0, .AHEAD. ) ;
#161 = APPROVAL_ROLE ( '' ) ;
#162 = DIRECTION ( 'NONE',  ( -3.491481338843133355E-15, 1.224646799147353207E-16, -1.000000000000000000 ) ) ;
#163 = APPLICATION_CONTEXT ( 'configuration controlled 3d designs of mechanical parts and assemblies' ) ;
#164 = DATE_AND_TIME ( #117, #131 ) ;
#165 = EDGE_LOOP ( 'NONE', ( #88 ) ) ;
#166 = PRODUCT_DEFINITION ( 'UNKNOWN', '', #149, #77 ) ;
#167 = CIRCLE ( 'NONE', #187, 5.500000000000003553 ) ;
#168 =( NAMED_UNIT ( * ) PLANE_ANGLE_UNIT ( ) SI_UNIT ( $, .RADIAN. ) );
#169 = DIRECTION ( 'NONE',  ( 0.0000000000000000000, 0.0000000000000000000, 1.000000000000000000 ) ) ;
#170 = FACE_OUTER_BOUND ( 'NONE', #194, .T. ) ;
#171 = APPLICATION_PROTOCOL_DEFINITION ( 'international standard', 'config_control_design', 1994, #163 ) ;
#172 = CC_DESIGN_DATE_AND_TIME_ASSIGNMENT ( #113, #174, ( #34 ) ) ;
#173 = DIRECTION ( 'NONE',  ( 0.0000000000000000000, 1.000000000000000000, 0.0000000000000000000 ) ) ;
#174 = DATE_TIME_ROLE ( 'classification_date' ) ;
#175 = ADVANCED_FACE ( 'NONE', ( #61, #97 ), #153, .T. ) ;
#176 = APPROVAL_STATUS ( 'not_yet_approved' ) ;
#177 = PERSON_AND_ORGANIZATION_ROLE ( 'classification_officer' ) ;
#178 = CARTESIAN_POINT ( 'NONE',  ( -2.565498867538175514E-30, 8.998558695971145647E-32, -7.347880794884119736E-16 ) ) ;
#179 = CARTESIAN_POINT ( 'NONE',  ( 3.474023932148917752E-13, -1.218523565151616460E-14, 99.50000000000000000 ) ) ;
#180 = AXIS2_PLACEMENT_3D ( 'NONE', #68, #48, #119 ) ;
#181 = LOCAL_TIME ( 10, 9, 54.00000000000000000, #18 ) ;
#182 = DIRECTION ( 'NONE',  ( 0.0000000000000000000, 1.000000000000000000, 0.0000000000000000000 ) ) ;
#183 = CARTESIAN_POINT ( 'NONE',  ( -1.282749433769087757E-30, 4.499279347985572824E-32, -3.673940397442059868E-16 ) ) ;
#184 = PLANE ( 'NONE',  #185 ) ;
#185 = AXIS2_PLACEMENT_3D ( 'NONE', #27, #10, #196 ) ;
#186 = CARTESIAN_POINT ( 'NONE',  ( 3.474023932148917752E-13, -1.218523565151616460E-14, 99.50000000000000000 ) ) ;
#187 = AXIS2_PLACEMENT_3D ( 'NONE', #74, #192, #71 ) ;
#188 = CALENDAR_DATE ( 2021, 9, 11 ) ;
#189 = CALENDAR_DATE ( 2021, 9, 11 ) ;
#190 = LOCAL_TIME ( 10, 9, 54.00000000000000000, #160 ) ;
#191 = EDGE_LOOP ( 'NONE', ( #51 ) ) ;
#192 = DIRECTION ( 'NONE',  ( -3.491481338843133355E-15, 1.224646799147353207E-16, -1.000000000000000000 ) ) ;
#193 = PRODUCT_RELATED_PRODUCT_CATEGORY ( 'detail', '', ( #30 ) ) ;
#194 = EDGE_LOOP ( 'NONE', ( #32 ) ) ;
#195 = ADVANCED_FACE ( 'NONE', ( #12, #170 ), #56, .T. ) ;
#196 = DIRECTION ( 'NONE',  ( 4.275831445896958607E-31, 1.000000000000000000, 1.224646799147353207E-16 ) ) ;
#197 = CARTESIAN_POINT ( 'NONE',  ( 3.491481338843133355E-13, 5.499999999999991118, 100.0000000000000000 ) ) ;
#198 = VERTEX_POINT ( 'NONE', #95 ) ;
#199 = CARTESIAN_POINT ( 'NONE',  ( 1.571166602479409884E-13, 5.999999999999994671, 45.00000000000000000 ) ) ;
#200 = FACE_OUTER_BOUND ( 'NONE', #5, .T. ) ;
#201 = AXIS2_PLACEMENT_3D ( 'NONE', #186, #141, #182 ) ;
#202 = APPROVAL_STATUS ( 'not_yet_approved' ) ;
#203 = DATE_AND_TIME ( #189, #190 ) ;
ENDSEC;
END-ISO-10303-21;
