ISO-10303-21;
HEADER;
FILE_DESCRIPTION (( 'STEP AP203' ),
    '1' );
FILE_NAME ('57136.step',
    '2021-11-09T09:09:54',
    ( '' ),
    ( '' ),
    'SwSTEP 2.0',
    'SolidWorks 2019',
    '' );
FILE_SCHEMA (( 'CONFIG_CONTROL_DESIGN' ));
ENDSEC;

DATA;
#1 = CARTESIAN_POINT ( 'NONE',  ( 1.396592535537253342E-13, 4.999999999999994671, 40.00000000000000000 ) ) ;
#2 = EDGE_CURVE ( 'NONE', #165, #165, #186, .T. ) ;
#3 = SECURITY_CLASSIFICATION_LEVEL ( 'unclassified' ) ;
#4 = AXIS2_PLACEMENT_3D ( 'NONE', #120, #47, #145 ) ;
#5 = CC_DESIGN_APPROVAL ( #167, ( #61 ) ) ;
#6 = CARTESIAN_POINT ( 'NONE',  ( 0.0000000000000000000, 0.0000000000000000000, 0.0000000000000000000 ) ) ;
#7 = PERSON_AND_ORGANIZATION ( #62, #26 ) ;
#8 = PRODUCT_DEFINITION ( 'UNKNOWN', '', #159, #66 ) ;
#9 = ORIENTED_EDGE ( 'NONE', *, *, #87, .F. ) ;
#10 = EDGE_CURVE ( 'NONE', #193, #193, #127, .T. ) ;
#11 = LOCAL_TIME ( 10, 9, 54.00000000000000000, #83 ) ;
#12 = DIRECTION ( 'NONE',  ( 0.0000000000000000000, 1.000000000000000000, 0.0000000000000000000 ) ) ;
#13 = AXIS2_PLACEMENT_3D ( 'NONE', #77, #179, #93 ) ;
#14 = CC_DESIGN_PERSON_AND_ORGANIZATION_ASSIGNMENT ( #50, #148, ( #159 ) ) ;
#15 = CARTESIAN_POINT ( 'NONE',  ( 3.474023932148917752E-13, -1.218523565151616460E-14, 99.50000000000000000 ) ) ;
#16 = DIRECTION ( 'NONE',  ( -3.491481338843133355E-15, 1.224646799147353207E-16, -1.000000000000000000 ) ) ;
#17 = CARTESIAN_POINT ( 'NONE',  ( -2.137915722948479128E-30, 7.498798913309288039E-32, -6.123233995736766282E-16 ) ) ;
#18 = COORDINATED_UNIVERSAL_TIME_OFFSET ( 1, 0, .AHEAD. ) ;
#19 = PRODUCT ( '57136', '57136', '', ( #115 ) ) ;
#20 = DATE_AND_TIME ( #166, #136 ) ;
#21 = EDGE_LOOP ( 'NONE', ( #183 ) ) ;
#22 = MANIFOLD_SOLID_BREP ( 'Corps-Déplacer/Copier1[1]', #65 ) ;
#23 =( LENGTH_UNIT ( ) NAMED_UNIT ( * ) SI_UNIT ( .MILLI., .METRE. ) );
#24 = APPROVAL_ROLE ( '' ) ;
#25 = EDGE_LOOP ( 'NONE', ( #85 ) ) ;
#26 = ORGANIZATION ( 'UNSPECIFIED', 'UNSPECIFIED', '' ) ;
#27 = ADVANCED_BREP_SHAPE_REPRESENTATION ( '57136', ( #22, #88, #142 ), #107 ) ;
#28 = FACE_OUTER_BOUND ( 'NONE', #108, .T. ) ;
#29 = CARTESIAN_POINT ( 'NONE',  ( 3.491481338843133355E-13, 3.374459510989163196E-32, 100.0000000000000000 ) ) ;
#30 = CALENDAR_DATE ( 2021, 9, 11 ) ;
#31 = PRODUCT_RELATED_PRODUCT_CATEGORY ( 'detail', '', ( #19 ) ) ;
#32 = DIRECTION ( 'NONE',  ( -3.491481338843133355E-15, 1.224646799147353207E-16, -1.000000000000000000 ) ) ;
#33 = ADVANCED_FACE ( 'NONE', ( #75 ), #59, .F. ) ;
#34 = CARTESIAN_POINT ( 'NONE',  ( 1.396592535537253342E-13, 3.749399456654637451E-32, 40.00000000000000000 ) ) ;
#35 = CARTESIAN_POINT ( 'NONE',  ( 3.491481338843133355E-13, 4.499999999999990230, 100.0000000000000000 ) ) ;
#36 = PERSON_AND_ORGANIZATION ( #62, #26 ) ;
#37 = AXIS2_PLACEMENT_3D ( 'NONE', #34, #42, #44 ) ;
#38 = ORIENTED_EDGE ( 'NONE', *, *, #198, .T. ) ;
#39 = AXIS2_PLACEMENT_3D ( 'NONE', #40, #122, #160 ) ;
#40 = CARTESIAN_POINT ( 'NONE',  ( -1.068957861474239564E-30, 3.749399456654644020E-32, -3.061616997868383141E-16 ) ) ;
#41 = DIRECTION ( 'NONE',  ( -3.491481338843133355E-15, 1.224646799147353207E-16, -1.000000000000000000 ) ) ;
#42 = DIRECTION ( 'NONE',  ( 3.491481338843133355E-15, -1.224646799147353207E-16, 1.000000000000000000 ) ) ;
#43 = CC_DESIGN_DATE_AND_TIME_ASSIGNMENT ( #20, #80, ( #61 ) ) ;
#44 = DIRECTION ( 'NONE',  ( -4.275831445896958607E-31, -1.000000000000000000, -1.224646799147353207E-16 ) ) ;
#45 = AXIS2_PLACEMENT_3D ( 'NONE', #17, #90, #163 ) ;
#46 = AXIS2_PLACEMENT_3D ( 'NONE', #76, #161, #177 ) ;
#47 = DIRECTION ( 'NONE',  ( -3.491481338843133355E-15, 1.224646799147353207E-16, -1.000000000000000000 ) ) ;
#48 = APPLICATION_CONTEXT ( 'configuration controlled 3d designs of mechanical parts and assemblies' ) ;
#49 = APPROVAL_STATUS ( 'not_yet_approved' ) ;
#50 = PERSON_AND_ORGANIZATION ( #62, #26 ) ;
#51 = APPROVAL_PERSON_ORGANIZATION ( #7, #124, #149 ) ;
#52 = APPROVAL_DATE_TIME ( #132, #124 ) ;
#53 = APPROVAL_DATE_TIME ( #114, #103 ) ;
#54 = CARTESIAN_POINT ( 'NONE',  ( 0.0000000000000000000, 5.000000000000000000, 0.0000000000000000000 ) ) ;
#55 = EDGE_LOOP ( 'NONE', ( #38 ) ) ;
#56 = CC_DESIGN_PERSON_AND_ORGANIZATION_ASSIGNMENT ( #36, #181, ( #61 ) ) ;
#57 = DIRECTION ( 'NONE',  ( 4.275831445896958607E-31, 1.000000000000000000, 1.224646799147353207E-16 ) ) ;
#58 = CARTESIAN_POINT ( 'NONE',  ( 3.491481338843133355E-13, -1.224646799147353217E-14, 100.0000000000000000 ) ) ;
#59 = PLANE ( 'NONE',  #37 ) ;
#60 = FACE_BOUND ( 'NONE', #199, .T. ) ;
#61 = SECURITY_CLASSIFICATION ( '', '', #3 ) ;
#62 = PERSON ( 'UNSPECIFIED', 'UNSPECIFIED', 'UNSPECIFIED', ('UNSPECIFIED'), ('UNSPECIFIED'), ('UNSPECIFIED') ) ;
#63 = APPLICATION_PROTOCOL_DEFINITION ( 'international standard', 'config_control_design', 1994, #48 ) ;
#64 = COORDINATED_UNIVERSAL_TIME_OFFSET ( 1, 0, .AHEAD. ) ;
#65 = CLOSED_SHELL ( 'NONE', ( #33, #100, #169, #157 ) ) ;
#66 = DESIGN_CONTEXT ( 'detailed design', #48, 'design' ) ;
#67 = LOCAL_TIME ( 10, 9, 54.00000000000000000, #72 ) ;
#68 = DIRECTION ( 'NONE',  ( 0.0000000000000000000, 0.0000000000000000000, 1.000000000000000000 ) ) ;
#69 = CALENDAR_DATE ( 2021, 9, 11 ) ;
#70 = APPROVAL_PERSON_ORGANIZATION ( #71, #167, #174 ) ;
#71 = PERSON_AND_ORGANIZATION ( #62, #26 ) ;
#72 = COORDINATED_UNIVERSAL_TIME_OFFSET ( 1, 0, .AHEAD. ) ;
#73 = ORIENTED_EDGE ( 'NONE', *, *, #10, .F. ) ;
#74 = CC_DESIGN_SECURITY_CLASSIFICATION ( #61, ( #159 ) ) ;
#75 = FACE_OUTER_BOUND ( 'NONE', #191, .T. ) ;
#76 = CARTESIAN_POINT ( 'NONE',  ( 0.0000000000000000000, 0.0000000000000000000, 0.0000000000000000000 ) ) ;
#77 = CARTESIAN_POINT ( 'NONE',  ( 3.474023932148917752E-13, -1.218523565151616460E-14, 99.50000000000000000 ) ) ;
#78 = PLANE ( 'NONE',  #102 ) ;
#79 = CALENDAR_DATE ( 2021, 9, 11 ) ;
#80 = DATE_TIME_ROLE ( 'classification_date' ) ;
#81 = CC_DESIGN_PERSON_AND_ORGANIZATION_ASSIGNMENT ( #101, #182, ( #8 ) ) ;
#82 = EDGE_LOOP ( 'NONE', ( #170 ) ) ;
#83 = COORDINATED_UNIVERSAL_TIME_OFFSET ( 1, 0, .AHEAD. ) ;
#84 = APPROVAL_STATUS ( 'not_yet_approved' ) ;
#85 = ORIENTED_EDGE ( 'NONE', *, *, #184, .T. ) ;
#86 = CC_DESIGN_PERSON_AND_ORGANIZATION_ASSIGNMENT ( #194, #180, ( #159 ) ) ;
#87 = EDGE_CURVE ( 'NONE', #98, #98, #106, .T. ) ;
#88 = MANIFOLD_SOLID_BREP ( 'Corps-Déplacer/Copier1[2]', #172 ) ;
#89 = DIRECTION ( 'NONE',  ( -3.491481338843133355E-15, 1.224646799147353207E-16, -1.000000000000000000 ) ) ;
#90 = DIRECTION ( 'NONE',  ( -3.491481338843133355E-15, 1.224646799147353207E-16, -1.000000000000000000 ) ) ;
#91 = AXIS2_PLACEMENT_3D ( 'NONE', #178, #89, #192 ) ;
#92 = AXIS2_PLACEMENT_3D ( 'NONE', #29, #16, #57 ) ;
#93 = DIRECTION ( 'NONE',  ( 0.0000000000000000000, 1.000000000000000000, 0.0000000000000000000 ) ) ;
#94 = FACE_OUTER_BOUND ( 'NONE', #55, .T. ) ;
#95 = FACE_OUTER_BOUND ( 'NONE', #105, .T. ) ;
#96 = CARTESIAN_POINT ( 'NONE',  ( 3.474023932148917752E-13, 4.999999999999990230, 99.50000000000000000 ) ) ;
#97 = APPROVAL_PERSON_ORGANIZATION ( #168, #103, #24 ) ;
#98 = VERTEX_POINT ( 'NONE', #35 ) ;
#99 = COORDINATED_UNIVERSAL_TIME_OFFSET ( 1, 0, .AHEAD. ) ;
#100 = ADVANCED_FACE ( 'NONE', ( #94, #188 ), #173, .T. ) ;
#101 = PERSON_AND_ORGANIZATION ( #62, #26 ) ;
#102 = AXIS2_PLACEMENT_3D ( 'NONE', #201, #121, #164 ) ;
#103 = APPROVAL ( #49, 'UNSPECIFIED' ) ;
#104 = PERSON_AND_ORGANIZATION ( #62, #26 ) ;
#105 = EDGE_LOOP ( 'NONE', ( #9 ) ) ;
#106 = CIRCLE ( 'NONE', #158, 4.500000000000002665 ) ;
#107 =( GEOMETRIC_REPRESENTATION_CONTEXT ( 3 ) GLOBAL_UNCERTAINTY_ASSIGNED_CONTEXT ( ( #153 ) ) GLOBAL_UNIT_ASSIGNED_CONTEXT ( ( #23, #196, #133 ) ) REPRESENTATION_CONTEXT ( 'NONE', 'WORKASPACE' ) );
#108 = EDGE_LOOP ( 'NONE', ( #118 ) ) ;
#109 = FACE_OUTER_BOUND ( 'NONE', #138, .T. ) ;
#110 = CONICAL_SURFACE ( 'NONE', #13, 5.000000000000002665, 0.7853981633974482790 ) ;
#111 = PLANE ( 'NONE',  #39 ) ;
#112 = SHAPE_DEFINITION_REPRESENTATION ( #134, #27 ) ;
#113 = FACE_OUTER_BOUND ( 'NONE', #82, .T. ) ;
#114 = DATE_AND_TIME ( #137, #187 ) ;
#115 = MECHANICAL_CONTEXT ( 'NONE', #129, 'mechanical' ) ;
#116 = CC_DESIGN_APPROVAL ( #103, ( #8 ) ) ;
#117 = VERTEX_POINT ( 'NONE', #54 ) ;
#118 = ORIENTED_EDGE ( 'NONE', *, *, #184, .F. ) ;
#119 = CC_DESIGN_PERSON_AND_ORGANIZATION_ASSIGNMENT ( #104, #135, ( #19 ) ) ;
#120 = CARTESIAN_POINT ( 'NONE',  ( 1.396592535537253342E-13, -4.898587196589413026E-15, 40.00000000000000000 ) ) ;
#121 = DIRECTION ( 'NONE',  ( 3.491481338843133355E-15, -1.224646799147353207E-16, 1.000000000000000000 ) ) ;
#122 = DIRECTION ( 'NONE',  ( -3.491481338843133355E-15, 1.224646799147353207E-16, -1.000000000000000000 ) ) ;
#123 = APPROVAL_DATE_TIME ( #176, #167 ) ;
#124 = APPROVAL ( #84, 'UNSPECIFIED' ) ;
#125 = FACE_OUTER_BOUND ( 'NONE', #25, .T. ) ;
#126 = ADVANCED_FACE ( 'NONE', ( #125 ), #111, .T. ) ;
#127 = CIRCLE ( 'NONE', #4, 5.000000000000000000 ) ;
#128 = CIRCLE ( 'NONE', #189, 5.000000000000002665 ) ;
#129 = APPLICATION_CONTEXT ( 'configuration controlled 3d designs of mechanical parts and assemblies' ) ;
#130 = CARTESIAN_POINT ( 'NONE',  ( 1.396592535537253342E-13, 4.999999999999994671, 40.00000000000000000 ) ) ;
#131 = ADVANCED_FACE ( 'NONE', ( #113 ), #78, .T. ) ;
#132 = DATE_AND_TIME ( #69, #139 ) ;
#133 =( NAMED_UNIT ( * ) SI_UNIT ( $, .STERADIAN. ) SOLID_ANGLE_UNIT ( ) );
#134 = PRODUCT_DEFINITION_SHAPE ( 'NONE', 'NONE',  #8 ) ;
#135 = PERSON_AND_ORGANIZATION_ROLE ( 'design_owner' ) ;
#136 = LOCAL_TIME ( 10, 9, 54.00000000000000000, #99 ) ;
#137 = CALENDAR_DATE ( 2021, 9, 11 ) ;
#138 = EDGE_LOOP ( 'NONE', ( #156 ) ) ;
#139 = LOCAL_TIME ( 10, 9, 54.00000000000000000, #64 ) ;
#140 = AXIS2_PLACEMENT_3D ( 'NONE', #144, #41, #141 ) ;
#141 = DIRECTION ( 'NONE',  ( 4.275831445896958607E-31, 1.000000000000000000, 1.224646799147353207E-16 ) ) ;
#142 = AXIS2_PLACEMENT_3D ( 'NONE', #6, #68, #197 ) ;
#143 = CC_DESIGN_DATE_AND_TIME_ASSIGNMENT ( #152, #195, ( #8 ) ) ;
#144 = CARTESIAN_POINT ( 'NONE',  ( 0.0000000000000000000, 0.0000000000000000000, 0.0000000000000000000 ) ) ;
#145 = DIRECTION ( 'NONE',  ( 0.0000000000000000000, 1.000000000000000000, 0.0000000000000000000 ) ) ;
#146 = DIRECTION ( 'NONE',  ( -3.491481338843133355E-15, 1.224646799147353207E-16, -1.000000000000000000 ) ) ;
#147 = ADVANCED_FACE ( 'NONE', ( #109, #28 ), #200, .T. ) ;
#148 = PERSON_AND_ORGANIZATION_ROLE ( 'design_supplier' ) ;
#149 = APPROVAL_ROLE ( '' ) ;
#150 = VERTEX_POINT ( 'NONE', #96 ) ;
#151 = ORIENTED_EDGE ( 'NONE', *, *, #87, .T. ) ;
#152 = DATE_AND_TIME ( #79, #11 ) ;
#153 = UNCERTAINTY_MEASURE_WITH_UNIT (LENGTH_MEASURE( 1.000000000000000082E-05 ), #23, 'distance_accuracy_value', 'NONE');
#154 = APPLICATION_PROTOCOL_DEFINITION ( 'international standard', 'config_control_design', 1994, #129 ) ;
#155 = APPROVAL_STATUS ( 'not_yet_approved' ) ;
#156 = ORIENTED_EDGE ( 'NONE', *, *, #2, .T. ) ;
#157 = ADVANCED_FACE ( 'NONE', ( #95 ), #190, .F. ) ;
#158 = AXIS2_PLACEMENT_3D ( 'NONE', #58, #32, #12 ) ;
#159 = PRODUCT_DEFINITION_FORMATION_WITH_SPECIFIED_SOURCE ( 'ANY', '', #19, .NOT_KNOWN. ) ;
#160 = DIRECTION ( 'NONE',  ( 4.275831445896958607E-31, 1.000000000000000000, 1.224646799147353207E-16 ) ) ;
#161 = DIRECTION ( 'NONE',  ( -3.491481338843133355E-15, 1.224646799147353207E-16, -1.000000000000000000 ) ) ;
#162 = CIRCLE ( 'NONE', #45, 5.000000000000000000 ) ;
#163 = DIRECTION ( 'NONE',  ( 4.275831445896958607E-31, 1.000000000000000000, 1.224646799147353207E-16 ) ) ;
#164 = DIRECTION ( 'NONE',  ( -4.275831445896958607E-31, -1.000000000000000000, -1.224646799147353207E-16 ) ) ;
#165 = VERTEX_POINT ( 'NONE', #130 ) ;
#166 = CALENDAR_DATE ( 2021, 9, 11 ) ;
#167 = APPROVAL ( #155, 'UNSPECIFIED' ) ;
#168 = PERSON_AND_ORGANIZATION ( #62, #26 ) ;
#169 = ADVANCED_FACE ( 'NONE', ( #60, #175 ), #110, .T. ) ;
#170 = ORIENTED_EDGE ( 'NONE', *, *, #2, .F. ) ;
#171 = CC_DESIGN_APPROVAL ( #124, ( #159 ) ) ;
#172 = CLOSED_SHELL ( 'NONE', ( #126, #147, #131 ) ) ;
#173 = CYLINDRICAL_SURFACE ( 'NONE', #140, 5.000000000000000888 ) ;
#174 = APPROVAL_ROLE ( '' ) ;
#175 = FACE_OUTER_BOUND ( 'NONE', #21, .T. ) ;
#176 = DATE_AND_TIME ( #30, #67 ) ;
#177 = DIRECTION ( 'NONE',  ( 4.275831445896958607E-31, 1.000000000000000000, 1.224646799147353207E-16 ) ) ;
#178 = CARTESIAN_POINT ( 'NONE',  ( 1.396592535537253342E-13, -4.898587196589413026E-15, 40.00000000000000000 ) ) ;
#179 = DIRECTION ( 'NONE',  ( -3.491481338843133355E-15, 1.224646799147353207E-16, -1.000000000000000000 ) ) ;
#180 = PERSON_AND_ORGANIZATION_ROLE ( 'creator' ) ;
#181 = PERSON_AND_ORGANIZATION_ROLE ( 'classification_officer' ) ;
#182 = PERSON_AND_ORGANIZATION_ROLE ( 'creator' ) ;
#183 = ORIENTED_EDGE ( 'NONE', *, *, #198, .F. ) ;
#184 = EDGE_CURVE ( 'NONE', #117, #117, #162, .T. ) ;
#185 = EDGE_LOOP ( 'NONE', ( #73 ) ) ;
#186 = CIRCLE ( 'NONE', #91, 5.000000000000000000 ) ;
#187 = LOCAL_TIME ( 10, 9, 54.00000000000000000, #18 ) ;
#188 = FACE_OUTER_BOUND ( 'NONE', #185, .T. ) ;
#189 = AXIS2_PLACEMENT_3D ( 'NONE', #15, #146, #203 ) ;
#190 = PLANE ( 'NONE',  #92 ) ;
#191 = EDGE_LOOP ( 'NONE', ( #202 ) ) ;
#192 = DIRECTION ( 'NONE',  ( 0.0000000000000000000, 1.000000000000000000, 0.0000000000000000000 ) ) ;
#193 = VERTEX_POINT ( 'NONE', #1 ) ;
#194 = PERSON_AND_ORGANIZATION ( #62, #26 ) ;
#195 = DATE_TIME_ROLE ( 'creation_date' ) ;
#196 =( NAMED_UNIT ( * ) PLANE_ANGLE_UNIT ( ) SI_UNIT ( $, .RADIAN. ) );
#197 = DIRECTION ( 'NONE',  ( 1.000000000000000000, 0.0000000000000000000, 0.0000000000000000000 ) ) ;
#198 = EDGE_CURVE ( 'NONE', #150, #150, #128, .T. ) ;
#199 = EDGE_LOOP ( 'NONE', ( #151 ) ) ;
#200 = CYLINDRICAL_SURFACE ( 'NONE', #46, 5.000000000000000000 ) ;
#201 = CARTESIAN_POINT ( 'NONE',  ( 1.396592535537253342E-13, 3.749399456654637451E-32, 40.00000000000000000 ) ) ;
#202 = ORIENTED_EDGE ( 'NONE', *, *, #10, .T. ) ;
#203 = DIRECTION ( 'NONE',  ( 0.0000000000000000000, 1.000000000000000000, 0.0000000000000000000 ) ) ;
ENDSEC;
END-ISO-10303-21;
