ISO-10303-21;
HEADER;
FILE_DESCRIPTION (( 'STEP AP203' ),
    '1' );
FILE_NAME ('57135.step',
    '2021-11-09T09:09:53',
    ( '' ),
    ( '' ),
    'SwSTEP 2.0',
    'SolidWorks 2019',
    '' );
FILE_SCHEMA (( 'CONFIG_CONTROL_DESIGN' ));
ENDSEC;

DATA;
#1 = EDGE_LOOP ( 'NONE', ( #65 ) ) ;
#2 = COORDINATED_UNIVERSAL_TIME_OFFSET ( 1, 0, .AHEAD. ) ;
#3 = PLANE ( 'NONE',  #38 ) ;
#4 = DIRECTION ( 'NONE',  ( -3.491481338843133355E-15, 1.224646799147353207E-16, -1.000000000000000000 ) ) ;
#5 = CIRCLE ( 'NONE', #81, 4.000000000000000888 ) ;
#6 = CARTESIAN_POINT ( 'NONE',  ( 0.0000000000000000000, 0.0000000000000000000, 0.0000000000000000000 ) ) ;
#7 = VERTEX_POINT ( 'NONE', #62 ) ;
#8 = DIRECTION ( 'NONE',  ( -3.491481338843133355E-15, 1.224646799147353207E-16, -1.000000000000000000 ) ) ;
#9 = CARTESIAN_POINT ( 'NONE',  ( 0.0000000000000000000, 0.0000000000000000000, 0.0000000000000000000 ) ) ;
#10 = CC_DESIGN_DATE_AND_TIME_ASSIGNMENT ( #26, #68, ( #109 ) ) ;
#11 = ADVANCED_BREP_SHAPE_REPRESENTATION ( '57135', ( #29, #165, #162 ), #67 ) ;
#12 = ADVANCED_FACE ( 'NONE', ( #189 ), #101, .F. ) ;
#13 = APPROVAL_PERSON_ORGANIZATION ( #40, #82, #66 ) ;
#14 = PERSON_AND_ORGANIZATION_ROLE ( 'creator' ) ;
#15 = EDGE_LOOP ( 'NONE', ( #130 ) ) ;
#16 = PERSON_AND_ORGANIZATION_ROLE ( 'creator' ) ;
#17 = COORDINATED_UNIVERSAL_TIME_OFFSET ( 1, 0, .AHEAD. ) ;
#18 = CARTESIAN_POINT ( 'NONE',  ( 3.491481338843133355E-13, 2.624579619658233297E-32, 100.0000000000000000 ) ) ;
#19 = DIRECTION ( 'NONE',  ( 0.0000000000000000000, 1.000000000000000000, 0.0000000000000000000 ) ) ;
#20 = FACE_OUTER_BOUND ( 'NONE', #115, .T. ) ;
#21 = AXIS2_PLACEMENT_3D ( 'NONE', #179, #77, #108 ) ;
#22 = LOCAL_TIME ( 10, 9, 53.00000000000000000, #17 ) ;
#23 = CARTESIAN_POINT ( 'NONE',  ( 1.396592535537253342E-13, 3.999999999999995559, 40.00000000000000000 ) ) ;
#24 = FACE_OUTER_BOUND ( 'NONE', #104, .T. ) ;
#25 = AXIS2_PLACEMENT_3D ( 'NONE', #85, #46, #69 ) ;
#26 = DATE_AND_TIME ( #155, #64 ) ;
#27 = ORIENTED_EDGE ( 'NONE', *, *, #98, .T. ) ;
#28 = APPROVAL_STATUS ( 'not_yet_approved' ) ;
#29 = MANIFOLD_SOLID_BREP ( 'Corps-Déplacer/Copier1[1]', #175 ) ;
#30 = EDGE_LOOP ( 'NONE', ( #71 ) ) ;
#31 = AXIS2_PLACEMENT_3D ( 'NONE', #49, #192, #110 ) ;
#32 = EDGE_CURVE ( 'NONE', #174, #174, #5, .T. ) ;
#33 = EDGE_LOOP ( 'NONE', ( #133 ) ) ;
#34 = PERSON_AND_ORGANIZATION ( #182, #123 ) ;
#35 = APPROVAL ( #56, 'UNSPECIFIED' ) ;
#36 = CYLINDRICAL_SURFACE ( 'NONE', #200, 4.000000000000000000 ) ;
#37 = CARTESIAN_POINT ( 'NONE',  ( -8.551662891793915461E-31, 2.999519565323715216E-32, -2.449293598294706414E-16 ) ) ;
#38 = AXIS2_PLACEMENT_3D ( 'NONE', #91, #50, #194 ) ;
#39 = CIRCLE ( 'NONE', #107, 4.000000000000000888 ) ;
#40 = PERSON_AND_ORGANIZATION ( #182, #123 ) ;
#41 = PERSON_AND_ORGANIZATION_ROLE ( 'design_owner' ) ;
#42 = ORIENTED_EDGE ( 'NONE', *, *, #119, .T. ) ;
#43 = SHAPE_DEFINITION_REPRESENTATION ( #120, #11 ) ;
#44 = ADVANCED_FACE ( 'NONE', ( #97, #48 ), #36, .T. ) ;
#45 = CIRCLE ( 'NONE', #21, 3.999999999999988010 ) ;
#46 = DIRECTION ( 'NONE',  ( 3.491481338843133355E-15, -1.224646799147353207E-16, 1.000000000000000000 ) ) ;
#47 = CARTESIAN_POINT ( 'NONE',  ( 3.421138828918010427E-46, 4.000000000000000000, 0.0000000000000000000 ) ) ;
#48 = FACE_OUTER_BOUND ( 'NONE', #170, .T. ) ;
#49 = CARTESIAN_POINT ( 'NONE',  ( -1.710332578358783092E-30, 5.999039130647430431E-32, -4.898587196589412829E-16 ) ) ;
#50 = DIRECTION ( 'NONE',  ( 3.491481338843133355E-15, -1.224646799147353207E-16, 1.000000000000000000 ) ) ;
#51 = LOCAL_TIME ( 10, 9, 53.00000000000000000, #186 ) ;
#52 =( NAMED_UNIT ( * ) SI_UNIT ( $, .STERADIAN. ) SOLID_ANGLE_UNIT ( ) );
#53 = AXIS2_PLACEMENT_3D ( 'NONE', #105, #177, #157 ) ;
#54 = PERSON_AND_ORGANIZATION ( #182, #123 ) ;
#55 = ORIENTED_EDGE ( 'NONE', *, *, #198, .F. ) ;
#56 = APPROVAL_STATUS ( 'not_yet_approved' ) ;
#57 = APPROVAL_ROLE ( '' ) ;
#58 = DIRECTION ( 'NONE',  ( 4.275831445896958607E-31, 1.000000000000000000, 1.224646799147353207E-16 ) ) ;
#59 = FACE_BOUND ( 'NONE', #15, .T. ) ;
#60 = DIRECTION ( 'NONE',  ( 4.275831445896959482E-31, 1.000000000000000000, 1.224646799147353454E-16 ) ) ;
#61 = ADVANCED_FACE ( 'NONE', ( #59, #75 ), #156, .T. ) ;
#62 = CARTESIAN_POINT ( 'NONE',  ( 3.474023932148917752E-13, 3.999999999999976019, 99.50000000000000000 ) ) ;
#63 = CARTESIAN_POINT ( 'NONE',  ( 3.491481338843133355E-13, 3.499999999999989342, 100.0000000000000000 ) ) ;
#64 = LOCAL_TIME ( 10, 9, 53.00000000000000000, #2 ) ;
#65 = ORIENTED_EDGE ( 'NONE', *, *, #119, .F. ) ;
#66 = APPROVAL_ROLE ( '' ) ;
#67 =( GEOMETRIC_REPRESENTATION_CONTEXT ( 3 ) GLOBAL_UNCERTAINTY_ASSIGNED_CONTEXT ( ( #145 ) ) GLOBAL_UNIT_ASSIGNED_CONTEXT ( ( #140, #93, #52 ) ) REPRESENTATION_CONTEXT ( 'NONE', 'WORKASPACE' ) );
#68 = DATE_TIME_ROLE ( 'creation_date' ) ;
#69 = DIRECTION ( 'NONE',  ( -4.275831445896958607E-31, -1.000000000000000000, -1.224646799147353207E-16 ) ) ;
#70 = DATE_AND_TIME ( #173, #51 ) ;
#71 = ORIENTED_EDGE ( 'NONE', *, *, #32, .F. ) ;
#72 = PERSON_AND_ORGANIZATION ( #182, #123 ) ;
#73 = CC_DESIGN_APPROVAL ( #82, ( #109 ) ) ;
#74 = PERSON_AND_ORGANIZATION ( #182, #123 ) ;
#75 = FACE_OUTER_BOUND ( 'NONE', #1, .T. ) ;
#76 = PLANE ( 'NONE',  #83 ) ;
#77 = DIRECTION ( 'NONE',  ( -3.491481338843133355E-15, 1.224646799147353207E-16, -1.000000000000000000 ) ) ;
#78 = DIRECTION ( 'NONE',  ( 0.0000000000000000000, 1.000000000000000000, 0.0000000000000000000 ) ) ;
#79 = ADVANCED_FACE ( 'NONE', ( #139 ), #3, .T. ) ;
#80 = CARTESIAN_POINT ( 'NONE',  ( 0.0000000000000000000, 0.0000000000000000000, 0.0000000000000000000 ) ) ;
#81 = AXIS2_PLACEMENT_3D ( 'NONE', #90, #191, #106 ) ;
#82 = APPROVAL ( #28, 'UNSPECIFIED' ) ;
#83 = AXIS2_PLACEMENT_3D ( 'NONE', #37, #8, #160 ) ;
#84 = CALENDAR_DATE ( 2021, 9, 11 ) ;
#85 = CARTESIAN_POINT ( 'NONE',  ( 1.396592535537253342E-13, 2.999519565323708647E-32, 40.00000000000000000 ) ) ;
#86 = APPROVAL_DATE_TIME ( #171, #82 ) ;
#87 = LOCAL_TIME ( 10, 9, 53.00000000000000000, #118 ) ;
#88 = EDGE_LOOP ( 'NONE', ( #27 ) ) ;
#89 = APPROVAL_STATUS ( 'not_yet_approved' ) ;
#90 = CARTESIAN_POINT ( 'NONE',  ( 1.396592535537253342E-13, -4.898587196589413026E-15, 40.00000000000000000 ) ) ;
#91 = CARTESIAN_POINT ( 'NONE',  ( 1.396592535537253342E-13, 2.999519565323708647E-32, 40.00000000000000000 ) ) ;
#92 = DIRECTION ( 'NONE',  ( 4.275831445896958607E-31, 1.000000000000000000, 1.224646799147353207E-16 ) ) ;
#93 =( NAMED_UNIT ( * ) PLANE_ANGLE_UNIT ( ) SI_UNIT ( $, .RADIAN. ) );
#94 = CARTESIAN_POINT ( 'NONE',  ( 3.474023932148917752E-13, -1.218523565151616460E-14, 99.50000000000000000 ) ) ;
#95 = CC_DESIGN_PERSON_AND_ORGANIZATION_ASSIGNMENT ( #74, #16, ( #138 ) ) ;
#96 = AXIS2_PLACEMENT_3D ( 'NONE', #18, #176, #58 ) ;
#97 = FACE_OUTER_BOUND ( 'NONE', #185, .T. ) ;
#98 = EDGE_CURVE ( 'NONE', #143, #143, #39, .T. ) ;
#99 = CC_DESIGN_SECURITY_CLASSIFICATION ( #103, ( #138 ) ) ;
#100 = DIRECTION ( 'NONE',  ( 1.000000000000000000, 0.0000000000000000000, 0.0000000000000000000 ) ) ;
#101 = PLANE ( 'NONE',  #25 ) ;
#102 = APPROVAL_DATE_TIME ( #70, #35 ) ;
#103 = SECURITY_CLASSIFICATION ( '', '', #113 ) ;
#104 = EDGE_LOOP ( 'NONE', ( #42 ) ) ;
#105 = CARTESIAN_POINT ( 'NONE',  ( 3.491481338843133355E-13, -1.224646799147353217E-14, 100.0000000000000000 ) ) ;
#106 = DIRECTION ( 'NONE',  ( 0.0000000000000000000, 1.000000000000000000, 0.0000000000000000000 ) ) ;
#107 = AXIS2_PLACEMENT_3D ( 'NONE', #163, #124, #19 ) ;
#108 = DIRECTION ( 'NONE',  ( 0.0000000000000000000, 1.000000000000000000, 0.0000000000000000000 ) ) ;
#109 = PRODUCT_DEFINITION ( 'UNKNOWN', '', #138, #128 ) ;
#110 = DIRECTION ( 'NONE',  ( 4.275831445896958607E-31, 1.000000000000000000, 1.224646799147353207E-16 ) ) ;
#111 = CARTESIAN_POINT ( 'NONE',  ( 1.396592535537253342E-13, 3.999999999999995559, 40.00000000000000000 ) ) ;
#112 = ADVANCED_FACE ( 'NONE', ( #20 ), #193, .F. ) ;
#113 = SECURITY_CLASSIFICATION_LEVEL ( 'unclassified' ) ;
#114 = CLOSED_SHELL ( 'NONE', ( #188, #44, #79 ) ) ;
#115 = EDGE_LOOP ( 'NONE', ( #55 ) ) ;
#116 = APPROVAL_DATE_TIME ( #187, #121 ) ;
#117 = MECHANICAL_CONTEXT ( 'NONE', #129, 'mechanical' ) ;
#118 = COORDINATED_UNIVERSAL_TIME_OFFSET ( 1, 0, .AHEAD. ) ;
#119 = EDGE_CURVE ( 'NONE', #7, #7, #45, .T. ) ;
#120 = PRODUCT_DEFINITION_SHAPE ( 'NONE', 'NONE',  #109 ) ;
#121 = APPROVAL ( #89, 'UNSPECIFIED' ) ;
#122 = CYLINDRICAL_SURFACE ( 'NONE', #180, 3.999999999999994671 ) ;
#123 = ORGANIZATION ( 'UNSPECIFIED', 'UNSPECIFIED', '' ) ;
#124 = DIRECTION ( 'NONE',  ( -3.491481338843133355E-15, 1.224646799147353207E-16, -1.000000000000000000 ) ) ;
#125 = VERTEX_POINT ( 'NONE', #47 ) ;
#126 = DIRECTION ( 'NONE',  ( 0.0000000000000000000, 0.0000000000000000000, 1.000000000000000000 ) ) ;
#127 = AXIS2_PLACEMENT_3D ( 'NONE', #94, #158, #78 ) ;
#128 = DESIGN_CONTEXT ( 'detailed design', #167, 'design' ) ;
#129 = APPLICATION_CONTEXT ( 'configuration controlled 3d designs of mechanical parts and assemblies' ) ;
#130 = ORIENTED_EDGE ( 'NONE', *, *, #198, .T. ) ;
#131 = PERSON_AND_ORGANIZATION_ROLE ( 'design_supplier' ) ;
#132 = PERSON_AND_ORGANIZATION_ROLE ( 'classification_officer' ) ;
#133 = ORIENTED_EDGE ( 'NONE', *, *, #161, .T. ) ;
#134 = ADVANCED_FACE ( 'NONE', ( #24, #141 ), #122, .T. ) ;
#135 = ORIENTED_EDGE ( 'NONE', *, *, #98, .F. ) ;
#136 = APPROVAL_ROLE ( '' ) ;
#137 = CC_DESIGN_DATE_AND_TIME_ASSIGNMENT ( #190, #199, ( #103 ) ) ;
#138 = PRODUCT_DEFINITION_FORMATION_WITH_SPECIFIED_SOURCE ( 'ANY', '', #202, .NOT_KNOWN. ) ;
#139 = FACE_OUTER_BOUND ( 'NONE', #30, .T. ) ;
#140 =( LENGTH_UNIT ( ) NAMED_UNIT ( * ) SI_UNIT ( .MILLI., .METRE. ) );
#141 = FACE_OUTER_BOUND ( 'NONE', #172, .T. ) ;
#142 = DIRECTION ( 'NONE',  ( -3.491481338843133355E-15, 1.224646799147353207E-16, -1.000000000000000000 ) ) ;
#143 = VERTEX_POINT ( 'NONE', #111 ) ;
#144 = APPLICATION_PROTOCOL_DEFINITION ( 'international standard', 'config_control_design', 1994, #129 ) ;
#145 = UNCERTAINTY_MEASURE_WITH_UNIT (LENGTH_MEASURE( 1.000000000000000082E-05 ), #140, 'distance_accuracy_value', 'NONE');
#146 = CC_DESIGN_PERSON_AND_ORGANIZATION_ASSIGNMENT ( #203, #41, ( #202 ) ) ;
#147 = CC_DESIGN_PERSON_AND_ORGANIZATION_ASSIGNMENT ( #54, #14, ( #109 ) ) ;
#148 = APPROVAL_PERSON_ORGANIZATION ( #201, #35, #136 ) ;
#149 = PERSON_AND_ORGANIZATION ( #182, #123 ) ;
#150 = APPLICATION_PROTOCOL_DEFINITION ( 'international standard', 'config_control_design', 1994, #167 ) ;
#151 = CIRCLE ( 'NONE', #31, 4.000000000000000000 ) ;
#152 = ORIENTED_EDGE ( 'NONE', *, *, #32, .T. ) ;
#153 = CALENDAR_DATE ( 2021, 9, 11 ) ;
#154 = ORIENTED_EDGE ( 'NONE', *, *, #161, .F. ) ;
#155 = CALENDAR_DATE ( 2021, 9, 11 ) ;
#156 = CONICAL_SURFACE ( 'NONE', #127, 3.999999999999988010, 0.7853981633974344012 ) ;
#157 = DIRECTION ( 'NONE',  ( 0.0000000000000000000, 1.000000000000000000, 0.0000000000000000000 ) ) ;
#158 = DIRECTION ( 'NONE',  ( -3.491481338843133355E-15, 1.224646799147353207E-16, -1.000000000000000000 ) ) ;
#159 = VERTEX_POINT ( 'NONE', #63 ) ;
#160 = DIRECTION ( 'NONE',  ( 4.275831445896958607E-31, 1.000000000000000000, 1.224646799147353207E-16 ) ) ;
#161 = EDGE_CURVE ( 'NONE', #125, #125, #151, .T. ) ;
#162 = AXIS2_PLACEMENT_3D ( 'NONE', #9, #126, #100 ) ;
#163 = CARTESIAN_POINT ( 'NONE',  ( 1.396592535537253342E-13, -4.898587196589413026E-15, 40.00000000000000000 ) ) ;
#164 = PRODUCT_RELATED_PRODUCT_CATEGORY ( 'detail', '', ( #202 ) ) ;
#165 = MANIFOLD_SOLID_BREP ( 'Corps-Déplacer/Copier1[2]', #114 ) ;
#166 = CIRCLE ( 'NONE', #53, 3.500000000000001332 ) ;
#167 = APPLICATION_CONTEXT ( 'configuration controlled 3d designs of mechanical parts and assemblies' ) ;
#168 = CC_DESIGN_APPROVAL ( #35, ( #103 ) ) ;
#169 = COORDINATED_UNIVERSAL_TIME_OFFSET ( 1, 0, .AHEAD. ) ;
#170 = EDGE_LOOP ( 'NONE', ( #154 ) ) ;
#171 = DATE_AND_TIME ( #184, #196 ) ;
#172 = EDGE_LOOP ( 'NONE', ( #135 ) ) ;
#173 = CALENDAR_DATE ( 2021, 9, 11 ) ;
#174 = VERTEX_POINT ( 'NONE', #23 ) ;
#175 = CLOSED_SHELL ( 'NONE', ( #12, #134, #61, #112 ) ) ;
#176 = DIRECTION ( 'NONE',  ( -3.491481338843133355E-15, 1.224646799147353207E-16, -1.000000000000000000 ) ) ;
#177 = DIRECTION ( 'NONE',  ( -3.491481338843133355E-15, 1.224646799147353207E-16, -1.000000000000000000 ) ) ;
#178 = FACE_OUTER_BOUND ( 'NONE', #33, .T. ) ;
#179 = CARTESIAN_POINT ( 'NONE',  ( 3.474023932148917752E-13, -1.218523565151616460E-14, 99.50000000000000000 ) ) ;
#180 = AXIS2_PLACEMENT_3D ( 'NONE', #6, #142, #60 ) ;
#181 = CC_DESIGN_PERSON_AND_ORGANIZATION_ASSIGNMENT ( #72, #132, ( #103 ) ) ;
#182 = PERSON ( 'UNSPECIFIED', 'UNSPECIFIED', 'UNSPECIFIED', ('UNSPECIFIED'), ('UNSPECIFIED'), ('UNSPECIFIED') ) ;
#183 = APPROVAL_PERSON_ORGANIZATION ( #34, #121, #57 ) ;
#184 = CALENDAR_DATE ( 2021, 9, 11 ) ;
#185 = EDGE_LOOP ( 'NONE', ( #152 ) ) ;
#186 = COORDINATED_UNIVERSAL_TIME_OFFSET ( 1, 0, .AHEAD. ) ;
#187 = DATE_AND_TIME ( #84, #87 ) ;
#188 = ADVANCED_FACE ( 'NONE', ( #178 ), #76, .T. ) ;
#189 = FACE_OUTER_BOUND ( 'NONE', #88, .T. ) ;
#190 = DATE_AND_TIME ( #153, #22 ) ;
#191 = DIRECTION ( 'NONE',  ( -3.491481338843133355E-15, 1.224646799147353207E-16, -1.000000000000000000 ) ) ;
#192 = DIRECTION ( 'NONE',  ( -3.491481338843133355E-15, 1.224646799147353207E-16, -1.000000000000000000 ) ) ;
#193 = PLANE ( 'NONE',  #96 ) ;
#194 = DIRECTION ( 'NONE',  ( -4.275831445896958607E-31, -1.000000000000000000, -1.224646799147353207E-16 ) ) ;
#195 = CC_DESIGN_PERSON_AND_ORGANIZATION_ASSIGNMENT ( #149, #131, ( #138 ) ) ;
#196 = LOCAL_TIME ( 10, 9, 53.00000000000000000, #169 ) ;
#197 = CC_DESIGN_APPROVAL ( #121, ( #138 ) ) ;
#198 = EDGE_CURVE ( 'NONE', #159, #159, #166, .T. ) ;
#199 = DATE_TIME_ROLE ( 'classification_date' ) ;
#200 = AXIS2_PLACEMENT_3D ( 'NONE', #80, #4, #92 ) ;
#201 = PERSON_AND_ORGANIZATION ( #182, #123 ) ;
#202 = PRODUCT ( '57135', '57135', '', ( #117 ) ) ;
#203 = PERSON_AND_ORGANIZATION ( #182, #123 ) ;
ENDSEC;
END-ISO-10303-21;
