ISO-10303-21;
HEADER;
FILE_DESCRIPTION (( 'STEP AP203' ),
    '1' );
FILE_NAME ('57134.step',
    '2021-11-09T09:09:53',
    ( '' ),
    ( '' ),
    'SwSTEP 2.0',
    'SolidWorks 2019',
    '' );
FILE_SCHEMA (( 'CONFIG_CONTROL_DESIGN' ));
ENDSEC;

DATA;
#1 = AXIS2_PLACEMENT_3D ( 'NONE', #59, #162, #199 ) ;
#2 = APPROVAL_STATUS ( 'not_yet_approved' ) ;
#3 = CC_DESIGN_APPROVAL ( #85, ( #138 ) ) ;
#4 = DIRECTION ( 'NONE',  ( 4.275831445896959482E-31, 1.000000000000000000, 1.224646799147353207E-16 ) ) ;
#5 = DIRECTION ( 'NONE',  ( 0.0000000000000000000, 1.000000000000000000, 0.0000000000000000000 ) ) ;
#6 = ADVANCED_FACE ( 'NONE', ( #177, #16 ), #78, .T. ) ;
#7 = SHAPE_DEFINITION_REPRESENTATION ( #56, #58 ) ;
#8 = DIRECTION ( 'NONE',  ( -3.491481338843133355E-15, 1.224646799147353207E-16, -1.000000000000000000 ) ) ;
#9 = PRODUCT_RELATED_PRODUCT_CATEGORY ( 'detail', '', ( #139 ) ) ;
#10 = ADVANCED_FACE ( 'NONE', ( #123 ), #51, .F. ) ;
#11 = CIRCLE ( 'NONE', #90, 3.000000000000000888 ) ;
#12 = COORDINATED_UNIVERSAL_TIME_OFFSET ( 1, 0, .AHEAD. ) ;
#13 = ADVANCED_FACE ( 'NONE', ( #168 ), #103, .T. ) ;
#14 = PERSON_AND_ORGANIZATION ( #181, #197 ) ;
#15 = PERSON_AND_ORGANIZATION_ROLE ( 'classification_officer' ) ;
#16 = FACE_OUTER_BOUND ( 'NONE', #67, .T. ) ;
#17 = MANIFOLD_SOLID_BREP ( 'Corps-Déplacer/Copier1[1]', #39 ) ;
#18 = MANIFOLD_SOLID_BREP ( 'Corps-Déplacer/Copier1[2]', #109 ) ;
#19 = FACE_OUTER_BOUND ( 'NONE', #174, .T. ) ;
#20 = DIRECTION ( 'NONE',  ( 4.275831445896959482E-31, 1.000000000000000000, 1.224646799147353207E-16 ) ) ;
#21 = DESIGN_CONTEXT ( 'detailed design', #156, 'design' ) ;
#22 = DIRECTION ( 'NONE',  ( 0.0000000000000000000, 1.000000000000000000, 0.0000000000000000000 ) ) ;
#23 = CC_DESIGN_APPROVAL ( #43, ( #69 ) ) ;
#24 = DIRECTION ( 'NONE',  ( -3.491481338843133355E-15, 1.224646799147353207E-16, -1.000000000000000000 ) ) ;
#25 = AXIS2_PLACEMENT_3D ( 'NONE', #136, #193, #88 ) ;
#26 = CARTESIAN_POINT ( 'NONE',  ( 1.396592535537253342E-13, 2.999999999999995115, 40.00000000000000000 ) ) ;
#27 =( NAMED_UNIT ( * ) PLANE_ANGLE_UNIT ( ) SI_UNIT ( $, .RADIAN. ) );
#28 = PERSON_AND_ORGANIZATION ( #181, #197 ) ;
#29 = AXIS2_PLACEMENT_3D ( 'NONE', #127, #111, #4 ) ;
#30 = APPROVAL_PERSON_ORGANIZATION ( #14, #43, #112 ) ;
#31 = APPROVAL ( #61, 'UNSPECIFIED' ) ;
#32 = PERSON_AND_ORGANIZATION_ROLE ( 'design_owner' ) ;
#33 = LOCAL_TIME ( 10, 9, 53.00000000000000000, #101 ) ;
#34 = APPROVAL_ROLE ( '' ) ;
#35 = DATE_AND_TIME ( #68, #76 ) ;
#36 = EDGE_LOOP ( 'NONE', ( #49 ) ) ;
#37 = CYLINDRICAL_SURFACE ( 'NONE', #194, 3.000000000000000000 ) ;
#38 = CARTESIAN_POINT ( 'NONE',  ( 1.396592535537253342E-13, 2.249639673992779569E-32, 40.00000000000000000 ) ) ;
#39 = CLOSED_SHELL ( 'NONE', ( #125, #6, #122, #10 ) ) ;
#40 = MECHANICAL_CONTEXT ( 'NONE', #147, 'mechanical' ) ;
#41 = PERSON_AND_ORGANIZATION ( #181, #197 ) ;
#42 = PERSON_AND_ORGANIZATION ( #181, #197 ) ;
#43 = APPROVAL ( #2, 'UNSPECIFIED' ) ;
#44 = CARTESIAN_POINT ( 'NONE',  ( 1.396592535537253342E-13, 2.999999999999995115, 40.00000000000000000 ) ) ;
#45 = CARTESIAN_POINT ( 'NONE',  ( 3.491481338843133355E-13, 2.499999999999988454, 100.0000000000000000 ) ) ;
#46 = ORIENTED_EDGE ( 'NONE', *, *, #102, .F. ) ;
#47 = ORIENTED_EDGE ( 'NONE', *, *, #198, .F. ) ;
#48 = ORIENTED_EDGE ( 'NONE', *, *, #198, .T. ) ;
#49 = ORIENTED_EDGE ( 'NONE', *, *, #102, .T. ) ;
#50 = DIRECTION ( 'NONE',  ( 4.275831445896959482E-31, 1.000000000000000000, 1.224646799147353207E-16 ) ) ;
#51 = PLANE ( 'NONE',  #179 ) ;
#52 = CONICAL_SURFACE ( 'NONE', #93, 3.000000000000000888, 0.7853981633974482790 ) ;
#53 = LOCAL_TIME ( 10, 9, 53.00000000000000000, #189 ) ;
#54 = DIRECTION ( 'NONE',  ( -3.491481338843133355E-15, 1.224646799147353207E-16, -1.000000000000000000 ) ) ;
#55 = FACE_OUTER_BOUND ( 'NONE', #36, .T. ) ;
#56 = PRODUCT_DEFINITION_SHAPE ( 'NONE', 'NONE',  #69 ) ;
#57 = EDGE_CURVE ( 'NONE', #152, #152, #196, .T. ) ;
#58 = ADVANCED_BREP_SHAPE_REPRESENTATION ( '57134', ( #17, #18, #142 ), #201 ) ;
#59 = CARTESIAN_POINT ( 'NONE',  ( 1.396592535537253342E-13, 2.249639673992779569E-32, 40.00000000000000000 ) ) ;
#60 = AXIS2_PLACEMENT_3D ( 'NONE', #195, #54, #22 ) ;
#61 = APPROVAL_STATUS ( 'not_yet_approved' ) ;
#62 = CARTESIAN_POINT ( 'NONE',  ( 3.474023932148917752E-13, 2.999999999999988898, 99.50000000000000000 ) ) ;
#63 = EDGE_LOOP ( 'NONE', ( #191 ) ) ;
#64 = CALENDAR_DATE ( 2021, 9, 11 ) ;
#65 = CALENDAR_DATE ( 2021, 9, 11 ) ;
#66 = DATE_AND_TIME ( #99, #33 ) ;
#67 = EDGE_LOOP ( 'NONE', ( #46 ) ) ;
#68 = CALENDAR_DATE ( 2021, 9, 11 ) ;
#69 = PRODUCT_DEFINITION ( 'UNKNOWN', '', #170, #21 ) ;
#70 = PLANE ( 'NONE',  #124 ) ;
#71 = CARTESIAN_POINT ( 'NONE',  ( 3.491481338843133355E-13, 1.874699728327304494E-32, 100.0000000000000000 ) ) ;
#72 = COORDINATED_UNIVERSAL_TIME_OFFSET ( 1, 0, .AHEAD. ) ;
#73 = CARTESIAN_POINT ( 'NONE',  ( 3.474023932148917752E-13, -1.218523565151616460E-14, 99.50000000000000000 ) ) ;
#74 = CC_DESIGN_APPROVAL ( #31, ( #170 ) ) ;
#75 = DIRECTION ( 'NONE',  ( -3.491481338843133355E-15, 1.224646799147353207E-16, -1.000000000000000000 ) ) ;
#76 = LOCAL_TIME ( 10, 9, 53.00000000000000000, #72 ) ;
#77 = CALENDAR_DATE ( 2021, 9, 11 ) ;
#78 = CYLINDRICAL_SURFACE ( 'NONE', #29, 3.000000000000000444 ) ;
#79 = APPLICATION_PROTOCOL_DEFINITION ( 'international standard', 'config_control_design', 1994, #156 ) ;
#80 = DIRECTION ( 'NONE',  ( 0.0000000000000000000, 0.0000000000000000000, 1.000000000000000000 ) ) ;
#81 = CIRCLE ( 'NONE', #106, 3.000000000000000000 ) ;
#82 = PERSON_AND_ORGANIZATION ( #181, #197 ) ;
#83 = ADVANCED_FACE ( 'NONE', ( #19, #167 ), #37, .T. ) ;
#84 = AXIS2_PLACEMENT_3D ( 'NONE', #140, #149, #86 ) ;
#85 = APPROVAL ( #116, 'UNSPECIFIED' ) ;
#86 = DIRECTION ( 'NONE',  ( 4.275831445896958607E-31, 1.000000000000000000, 1.224646799147353207E-16 ) ) ;
#87 = PERSON_AND_ORGANIZATION_ROLE ( 'design_supplier' ) ;
#88 = DIRECTION ( 'NONE',  ( 0.0000000000000000000, 1.000000000000000000, 0.0000000000000000000 ) ) ;
#89 = DIRECTION ( 'NONE',  ( 0.0000000000000000000, 1.000000000000000000, 0.0000000000000000000 ) ) ;
#90 = AXIS2_PLACEMENT_3D ( 'NONE', #165, #150, #5 ) ;
#91 = UNCERTAINTY_MEASURE_WITH_UNIT (LENGTH_MEASURE( 1.000000000000000082E-05 ), #172, 'distance_accuracy_value', 'NONE');
#92 = EDGE_CURVE ( 'NONE', #187, #187, #11, .T. ) ;
#93 = AXIS2_PLACEMENT_3D ( 'NONE', #73, #75, #153 ) ;
#94 = APPROVAL_PERSON_ORGANIZATION ( #171, #31, #141 ) ;
#95 = PERSON_AND_ORGANIZATION_ROLE ( 'creator' ) ;
#96 = ORIENTED_EDGE ( 'NONE', *, *, #92, .T. ) ;
#97 = PERSON_AND_ORGANIZATION_ROLE ( 'creator' ) ;
#98 = FACE_OUTER_BOUND ( 'NONE', #113, .T. ) ;
#99 = CALENDAR_DATE ( 2021, 9, 11 ) ;
#100 = DIRECTION ( 'NONE',  ( -3.491481338843133355E-15, 1.224646799147353207E-16, -1.000000000000000000 ) ) ;
#101 = COORDINATED_UNIVERSAL_TIME_OFFSET ( 1, 0, .AHEAD. ) ;
#102 = EDGE_CURVE ( 'NONE', #185, #185, #128, .T. ) ;
#103 = PLANE ( 'NONE',  #84 ) ;
#104 = DIRECTION ( 'NONE',  ( -3.491481338843133355E-15, 1.224646799147353207E-16, -1.000000000000000000 ) ) ;
#105 = CC_DESIGN_DATE_AND_TIME_ASSIGNMENT ( #158, #107, ( #69 ) ) ;
#106 = AXIS2_PLACEMENT_3D ( 'NONE', #182, #104, #89 ) ;
#107 = DATE_TIME_ROLE ( 'creation_date' ) ;
#108 = VERTEX_POINT ( 'NONE', #45 ) ;
#109 = CLOSED_SHELL ( 'NONE', ( #13, #83, #126 ) ) ;
#110 =( NAMED_UNIT ( * ) SI_UNIT ( $, .STERADIAN. ) SOLID_ANGLE_UNIT ( ) );
#111 = DIRECTION ( 'NONE',  ( -3.491481338843133355E-15, 1.224646799147353207E-16, -1.000000000000000000 ) ) ;
#112 = APPROVAL_ROLE ( '' ) ;
#113 = EDGE_LOOP ( 'NONE', ( #47 ) ) ;
#114 = AXIS2_PLACEMENT_3D ( 'NONE', #180, #24, #50 ) ;
#115 = LOCAL_TIME ( 10, 9, 53.00000000000000000, #173 ) ;
#116 = APPROVAL_STATUS ( 'not_yet_approved' ) ;
#117 = EDGE_LOOP ( 'NONE', ( #132 ) ) ;
#118 = CC_DESIGN_DATE_AND_TIME_ASSIGNMENT ( #35, #192, ( #138 ) ) ;
#119 = DIRECTION ( 'NONE',  ( 4.275831445896958607E-31, 1.000000000000000000, 1.224646799147353207E-16 ) ) ;
#120 = CC_DESIGN_PERSON_AND_ORGANIZATION_ASSIGNMENT ( #41, #97, ( #170 ) ) ;
#121 = FACE_OUTER_BOUND ( 'NONE', #176, .T. ) ;
#122 = ADVANCED_FACE ( 'NONE', ( #151, #121 ), #52, .T. ) ;
#123 = FACE_OUTER_BOUND ( 'NONE', #63, .T. ) ;
#124 = AXIS2_PLACEMENT_3D ( 'NONE', #38, #135, #137 ) ;
#125 = ADVANCED_FACE ( 'NONE', ( #55 ), #183, .F. ) ;
#126 = ADVANCED_FACE ( 'NONE', ( #98 ), #70, .T. ) ;
#127 = CARTESIAN_POINT ( 'NONE',  ( 0.0000000000000000000, 0.0000000000000000000, 0.0000000000000000000 ) ) ;
#128 = CIRCLE ( 'NONE', #25, 3.000000000000000000 ) ;
#129 = LOCAL_TIME ( 10, 9, 53.00000000000000000, #12 ) ;
#130 = DATE_AND_TIME ( #64, #115 ) ;
#131 = ORIENTED_EDGE ( 'NONE', *, *, #57, .F. ) ;
#132 = ORIENTED_EDGE ( 'NONE', *, *, #143, .T. ) ;
#133 = ORIENTED_EDGE ( 'NONE', *, *, #92, .F. ) ;
#134 = PERSON_AND_ORGANIZATION ( #181, #197 ) ;
#135 = DIRECTION ( 'NONE',  ( 3.491481338843133355E-15, -1.224646799147353207E-16, 1.000000000000000000 ) ) ;
#136 = CARTESIAN_POINT ( 'NONE',  ( 1.396592535537253342E-13, -4.898587196589413026E-15, 40.00000000000000000 ) ) ;
#137 = DIRECTION ( 'NONE',  ( -4.275831445896958607E-31, -1.000000000000000000, -1.224646799147353207E-16 ) ) ;
#138 = SECURITY_CLASSIFICATION ( '', '', #178 ) ;
#139 = PRODUCT ( '57134', '57134', '', ( #40 ) ) ;
#140 = CARTESIAN_POINT ( 'NONE',  ( -6.413747168845438786E-31, 2.249639673992786412E-32, -1.836970198721029934E-16 ) ) ;
#141 = APPROVAL_ROLE ( '' ) ;
#142 = AXIS2_PLACEMENT_3D ( 'NONE', #203, #80, #157 ) ;
#143 = EDGE_CURVE ( 'NONE', #108, #108, #169, .T. ) ;
#144 = CC_DESIGN_PERSON_AND_ORGANIZATION_ASSIGNMENT ( #28, #95, ( #69 ) ) ;
#145 = CC_DESIGN_SECURITY_CLASSIFICATION ( #138, ( #170 ) ) ;
#146 = APPROVAL_DATE_TIME ( #130, #43 ) ;
#147 = APPLICATION_CONTEXT ( 'configuration controlled 3d designs of mechanical parts and assemblies' ) ;
#148 = APPROVAL_PERSON_ORGANIZATION ( #82, #85, #34 ) ;
#149 = DIRECTION ( 'NONE',  ( -3.491481338843133355E-15, 1.224646799147353207E-16, -1.000000000000000000 ) ) ;
#150 = DIRECTION ( 'NONE',  ( -3.491481338843133355E-15, 1.224646799147353207E-16, -1.000000000000000000 ) ) ;
#151 = FACE_BOUND ( 'NONE', #117, .T. ) ;
#152 = VERTEX_POINT ( 'NONE', #155 ) ;
#153 = DIRECTION ( 'NONE',  ( 0.0000000000000000000, 1.000000000000000000, 0.0000000000000000000 ) ) ;
#154 = CC_DESIGN_PERSON_AND_ORGANIZATION_ASSIGNMENT ( #134, #15, ( #138 ) ) ;
#155 = CARTESIAN_POINT ( 'NONE',  ( 0.0000000000000000000, 3.000000000000000000, 0.0000000000000000000 ) ) ;
#156 = APPLICATION_CONTEXT ( 'configuration controlled 3d designs of mechanical parts and assemblies' ) ;
#157 = DIRECTION ( 'NONE',  ( 1.000000000000000000, 0.0000000000000000000, 0.0000000000000000000 ) ) ;
#158 = DATE_AND_TIME ( #65, #53 ) ;
#159 = EDGE_LOOP ( 'NONE', ( #161 ) ) ;
#160 = PERSON_AND_ORGANIZATION ( #181, #197 ) ;
#161 = ORIENTED_EDGE ( 'NONE', *, *, #57, .T. ) ;
#162 = DIRECTION ( 'NONE',  ( 3.491481338843133355E-15, -1.224646799147353207E-16, 1.000000000000000000 ) ) ;
#163 = APPROVAL_DATE_TIME ( #66, #85 ) ;
#164 = CC_DESIGN_PERSON_AND_ORGANIZATION_ASSIGNMENT ( #42, #32, ( #139 ) ) ;
#165 = CARTESIAN_POINT ( 'NONE',  ( 3.474023932148917752E-13, -1.218523565151616460E-14, 99.50000000000000000 ) ) ;
#166 = CARTESIAN_POINT ( 'NONE',  ( 0.0000000000000000000, 0.0000000000000000000, 0.0000000000000000000 ) ) ;
#167 = FACE_OUTER_BOUND ( 'NONE', #188, .T. ) ;
#168 = FACE_OUTER_BOUND ( 'NONE', #159, .T. ) ;
#169 = CIRCLE ( 'NONE', #60, 2.500000000000000444 ) ;
#170 = PRODUCT_DEFINITION_FORMATION_WITH_SPECIFIED_SOURCE ( 'ANY', '', #139, .NOT_KNOWN. ) ;
#171 = PERSON_AND_ORGANIZATION ( #181, #197 ) ;
#172 =( LENGTH_UNIT ( ) NAMED_UNIT ( * ) SI_UNIT ( .MILLI., .METRE. ) );
#173 = COORDINATED_UNIVERSAL_TIME_OFFSET ( 1, 0, .AHEAD. ) ;
#174 = EDGE_LOOP ( 'NONE', ( #48 ) ) ;
#175 = APPLICATION_PROTOCOL_DEFINITION ( 'international standard', 'config_control_design', 1994, #147 ) ;
#176 = EDGE_LOOP ( 'NONE', ( #133 ) ) ;
#177 = FACE_OUTER_BOUND ( 'NONE', #190, .T. ) ;
#178 = SECURITY_CLASSIFICATION_LEVEL ( 'unclassified' ) ;
#179 = AXIS2_PLACEMENT_3D ( 'NONE', #71, #8, #119 ) ;
#180 = CARTESIAN_POINT ( 'NONE',  ( -1.282749433769087757E-30, 4.499279347985572824E-32, -3.673940397442059868E-16 ) ) ;
#181 = PERSON ( 'UNSPECIFIED', 'UNSPECIFIED', 'UNSPECIFIED', ('UNSPECIFIED'), ('UNSPECIFIED'), ('UNSPECIFIED') ) ;
#182 = CARTESIAN_POINT ( 'NONE',  ( 1.396592535537253342E-13, -4.898587196589413026E-15, 40.00000000000000000 ) ) ;
#183 = PLANE ( 'NONE',  #1 ) ;
#184 = APPROVAL_DATE_TIME ( #200, #31 ) ;
#185 = VERTEX_POINT ( 'NONE', #44 ) ;
#186 = CC_DESIGN_PERSON_AND_ORGANIZATION_ASSIGNMENT ( #160, #87, ( #170 ) ) ;
#187 = VERTEX_POINT ( 'NONE', #62 ) ;
#188 = EDGE_LOOP ( 'NONE', ( #131 ) ) ;
#189 = COORDINATED_UNIVERSAL_TIME_OFFSET ( 1, 0, .AHEAD. ) ;
#190 = EDGE_LOOP ( 'NONE', ( #96 ) ) ;
#191 = ORIENTED_EDGE ( 'NONE', *, *, #143, .F. ) ;
#192 = DATE_TIME_ROLE ( 'classification_date' ) ;
#193 = DIRECTION ( 'NONE',  ( -3.491481338843133355E-15, 1.224646799147353207E-16, -1.000000000000000000 ) ) ;
#194 = AXIS2_PLACEMENT_3D ( 'NONE', #166, #100, #20 ) ;
#195 = CARTESIAN_POINT ( 'NONE',  ( 3.491481338843133355E-13, -1.224646799147353217E-14, 100.0000000000000000 ) ) ;
#196 = CIRCLE ( 'NONE', #114, 3.000000000000000000 ) ;
#197 = ORGANIZATION ( 'UNSPECIFIED', 'UNSPECIFIED', '' ) ;
#198 = EDGE_CURVE ( 'NONE', #202, #202, #81, .T. ) ;
#199 = DIRECTION ( 'NONE',  ( -4.275831445896958607E-31, -1.000000000000000000, -1.224646799147353207E-16 ) ) ;
#200 = DATE_AND_TIME ( #77, #129 ) ;
#201 =( GEOMETRIC_REPRESENTATION_CONTEXT ( 3 ) GLOBAL_UNCERTAINTY_ASSIGNED_CONTEXT ( ( #91 ) ) GLOBAL_UNIT_ASSIGNED_CONTEXT ( ( #172, #27, #110 ) ) REPRESENTATION_CONTEXT ( 'NONE', 'WORKASPACE' ) );
#202 = VERTEX_POINT ( 'NONE', #26 ) ;
#203 = CARTESIAN_POINT ( 'NONE',  ( 0.0000000000000000000, 0.0000000000000000000, 0.0000000000000000000 ) ) ;
ENDSEC;
END-ISO-10303-21;
