ISO-10303-21;
HEADER;
FILE_DESCRIPTION (( 'STEP AP203' ),
    '1' );
FILE_NAME ('57133.step',
    '2021-11-09T09:09:52',
    ( '' ),
    ( '' ),
    'SwSTEP 2.0',
    'SolidWorks 2019',
    '' );
FILE_SCHEMA (( 'CONFIG_CONTROL_DESIGN' ));
ENDSEC;

DATA;
#1 = AXIS2_PLACEMENT_3D ( 'NONE', #9, #44, #167 ) ;
#2 = VERTEX_POINT ( 'NONE', #175 ) ;
#3 = APPROVAL ( #20, 'UNSPECIFIED' ) ;
#4 = CARTESIAN_POINT ( 'NONE',  ( 1.222018468595096801E-13, 2.499999999999995559, 35.00000000000000000 ) ) ;
#5 = PRODUCT_DEFINITION ( 'UNKNOWN', '', #37, #149 ) ;
#6 = ORIENTED_EDGE ( 'NONE', *, *, #109, .F. ) ;
#7 = PERSON_AND_ORGANIZATION ( #163, #122 ) ;
#8 = EDGE_LOOP ( 'NONE', ( #193 ) ) ;
#9 = CARTESIAN_POINT ( 'NONE',  ( 0.0000000000000000000, 0.0000000000000000000, 0.0000000000000000000 ) ) ;
#10 = CARTESIAN_POINT ( 'NONE',  ( 1.222018468595096801E-13, -4.286263797015736496E-15, 35.00000000000000000 ) ) ;
#11 = ORIENTED_EDGE ( 'NONE', *, *, #164, .T. ) ;
#12 = APPROVAL ( #162, 'UNSPECIFIED' ) ;
#13 = PLANE ( 'NONE',  #88 ) ;
#14 = PLANE ( 'NONE',  #27 ) ;
#15 =( NAMED_UNIT ( * ) PLANE_ANGLE_UNIT ( ) SI_UNIT ( $, .RADIAN. ) );
#16 =( LENGTH_UNIT ( ) NAMED_UNIT ( * ) SI_UNIT ( .MILLI., .METRE. ) );
#17 = AXIS2_PLACEMENT_3D ( 'NONE', #33, #76, #101 ) ;
#18 = PERSON_AND_ORGANIZATION ( #163, #122 ) ;
#19 = ADVANCED_FACE ( 'NONE', ( #181, #64 ), #131, .T. ) ;
#20 = APPROVAL_STATUS ( 'not_yet_approved' ) ;
#21 = CC_DESIGN_PERSON_AND_ORGANIZATION_ASSIGNMENT ( #18, #67, ( #155 ) ) ;
#22 = CALENDAR_DATE ( 2021, 9, 11 ) ;
#23 = MANIFOLD_SOLID_BREP ( 'Corps-Déplacer/Copier1[1]', #85 ) ;
#24 = APPROVAL_PERSON_ORGANIZATION ( #7, #12, #60 ) ;
#25 = CC_DESIGN_PERSON_AND_ORGANIZATION_ASSIGNMENT ( #191, #146, ( #37 ) ) ;
#26 = DIRECTION ( 'NONE',  ( -3.491481338843133355E-15, 1.224646799147353207E-16, -1.000000000000000000 ) ) ;
#27 = AXIS2_PLACEMENT_3D ( 'NONE', #77, #137, #110 ) ;
#28 = PLANE ( 'NONE',  #143 ) ;
#29 = DIRECTION ( 'NONE',  ( 4.275831445896958607E-31, 1.000000000000000000, 1.224646799147353207E-16 ) ) ;
#30 = CARTESIAN_POINT ( 'NONE',  ( 2.618611004132350143E-13, -9.184850993605148733E-15, 75.00000000000000000 ) ) ;
#31 = ADVANCED_FACE ( 'NONE', ( #42 ), #119, .T. ) ;
#32 = LOCAL_TIME ( 10, 9, 52.00000000000000000, #65 ) ;
#33 = CARTESIAN_POINT ( 'NONE',  ( 0.0000000000000000000, 0.0000000000000000000, 0.0000000000000000000 ) ) ;
#34 = PERSON_AND_ORGANIZATION_ROLE ( 'creator' ) ;
#35 = CARTESIAN_POINT ( 'NONE',  ( 0.0000000000000000000, 0.0000000000000000000, 0.0000000000000000000 ) ) ;
#36 = VERTEX_POINT ( 'NONE', #46 ) ;
#37 = PRODUCT_DEFINITION_FORMATION_WITH_SPECIFIED_SOURCE ( 'ANY', '', #155, .NOT_KNOWN. ) ;
#38 = EDGE_LOOP ( 'NONE', ( #179 ) ) ;
#39 = CC_DESIGN_PERSON_AND_ORGANIZATION_ASSIGNMENT ( #171, #34, ( #5 ) ) ;
#40 = DIRECTION ( 'NONE',  ( 4.275831445896958607E-31, 1.000000000000000000, 1.224646799147353207E-16 ) ) ;
#41 = APPLICATION_CONTEXT ( 'configuration controlled 3d designs of mechanical parts and assemblies' ) ;
#42 = FACE_OUTER_BOUND ( 'NONE', #54, .T. ) ;
#43 = AXIS2_PLACEMENT_3D ( 'NONE', #168, #201, #29 ) ;
#44 = DIRECTION ( 'NONE',  ( -3.491481338843133355E-15, 1.224646799147353207E-16, -1.000000000000000000 ) ) ;
#45 = DIRECTION ( 'NONE',  ( -3.491481338843133355E-15, 1.224646799147353207E-16, -1.000000000000000000 ) ) ;
#46 = CARTESIAN_POINT ( 'NONE',  ( 1.222018468595096801E-13, 2.499999999999995559, 35.00000000000000000 ) ) ;
#47 = CC_DESIGN_DATE_AND_TIME_ASSIGNMENT ( #99, #144, ( #160 ) ) ;
#48 = APPLICATION_PROTOCOL_DEFINITION ( 'international standard', 'config_control_design', 1994, #93 ) ;
#49 = VERTEX_POINT ( 'NONE', #4 ) ;
#50 = APPROVAL_ROLE ( '' ) ;
#51 = ORIENTED_EDGE ( 'NONE', *, *, #125, .T. ) ;
#52 = APPROVAL_DATE_TIME ( #96, #12 ) ;
#53 = AXIS2_PLACEMENT_3D ( 'NONE', #150, #75, #40 ) ;
#54 = EDGE_LOOP ( 'NONE', ( #117 ) ) ;
#55 = DATE_AND_TIME ( #97, #32 ) ;
#56 = CC_DESIGN_APPROVAL ( #78, ( #37 ) ) ;
#57 = CARTESIAN_POINT ( 'NONE',  ( 2.601153597438135044E-13, -9.123618653647784315E-15, 74.50000000000002842 ) ) ;
#58 = ADVANCED_FACE ( 'NONE', ( #102, #87 ), #90, .T. ) ;
#59 = EDGE_LOOP ( 'NONE', ( #51 ) ) ;
#60 = APPROVAL_ROLE ( '' ) ;
#61 = DIRECTION ( 'NONE',  ( 0.0000000000000000000, 1.000000000000000000, 0.0000000000000000000 ) ) ;
#62 = CIRCLE ( 'NONE', #156, 2.499999999999997335 ) ;
#63 = DIRECTION ( 'NONE',  ( 0.0000000000000000000, 1.000000000000000000, 0.0000000000000000000 ) ) ;
#64 = FACE_OUTER_BOUND ( 'NONE', #105, .T. ) ;
#65 = COORDINATED_UNIVERSAL_TIME_OFFSET ( 1, 0, .AHEAD. ) ;
#66 = AXIS2_PLACEMENT_3D ( 'NONE', #30, #195, #63 ) ;
#67 = PERSON_AND_ORGANIZATION_ROLE ( 'design_owner' ) ;
#68 = COORDINATED_UNIVERSAL_TIME_OFFSET ( 1, 0, .AHEAD. ) ;
#69 = APPROVAL_PERSON_ORGANIZATION ( #142, #78, #50 ) ;
#70 = LOCAL_TIME ( 10, 9, 52.00000000000000000, #141 ) ;
#71 = ORIENTED_EDGE ( 'NONE', *, *, #192, .T. ) ;
#72 = DIRECTION ( 'NONE',  ( -3.491481338843133355E-15, 1.224646799147353207E-16, -1.000000000000000000 ) ) ;
#73 = ORIENTED_EDGE ( 'NONE', *, *, #164, .F. ) ;
#74 = SECURITY_CLASSIFICATION_LEVEL ( 'unclassified' ) ;
#75 = DIRECTION ( 'NONE',  ( -3.491481338843133355E-15, 1.224646799147353207E-16, -1.000000000000000000 ) ) ;
#76 = DIRECTION ( 'NONE',  ( -3.491481338843133355E-15, 1.224646799147353207E-16, -1.000000000000000000 ) ) ;
#77 = CARTESIAN_POINT ( 'NONE',  ( 1.222018468595096801E-13, 1.874699728327315715E-32, 35.00000000000000000 ) ) ;
#78 = APPROVAL ( #190, 'UNSPECIFIED' ) ;
#79 = APPLICATION_PROTOCOL_DEFINITION ( 'international standard', 'config_control_design', 1994, #41 ) ;
#80 = CIRCLE ( 'NONE', #154, 2.500000000000000000 ) ;
#81 = APPROVAL_DATE_TIME ( #95, #3 ) ;
#82 = DATE_AND_TIME ( #126, #70 ) ;
#83 = APPROVAL_DATE_TIME ( #55, #78 ) ;
#84 = CC_DESIGN_PERSON_AND_ORGANIZATION_ASSIGNMENT ( #177, #159, ( #160 ) ) ;
#85 = CLOSED_SHELL ( 'NONE', ( #199, #19, #185, #91 ) ) ;
#86 = UNCERTAINTY_MEASURE_WITH_UNIT (LENGTH_MEASURE( 1.000000000000000082E-05 ), #16, 'distance_accuracy_value', 'NONE');
#87 = FACE_OUTER_BOUND ( 'NONE', #196, .T. ) ;
#88 = AXIS2_PLACEMENT_3D ( 'NONE', #151, #135, #94 ) ;
#89 = CARTESIAN_POINT ( 'NONE',  ( 2.618611004132350143E-13, 1.499759782661846934E-32, 75.00000000000000000 ) ) ;
#90 = CYLINDRICAL_SURFACE ( 'NONE', #17, 2.500000000000000000 ) ;
#91 = ADVANCED_FACE ( 'NONE', ( #152 ), #28, .F. ) ;
#92 = FACE_OUTER_BOUND ( 'NONE', #148, .T. ) ;
#93 = APPLICATION_CONTEXT ( 'configuration controlled 3d designs of mechanical parts and assemblies' ) ;
#94 = DIRECTION ( 'NONE',  ( -4.275831445896958607E-31, -1.000000000000000000, -1.224646799147353207E-16 ) ) ;
#95 = DATE_AND_TIME ( #173, #108 ) ;
#96 = DATE_AND_TIME ( #22, #112 ) ;
#97 = CALENDAR_DATE ( 2021, 9, 11 ) ;
#98 = ADVANCED_FACE ( 'NONE', ( #169 ), #13, .T. ) ;
#99 = DATE_AND_TIME ( #133, #118 ) ;
#100 = APPROVAL_PERSON_ORGANIZATION ( #124, #3, #186 ) ;
#101 = DIRECTION ( 'NONE',  ( 4.275831445896958607E-31, 1.000000000000000000, 1.224646799147353207E-16 ) ) ;
#102 = FACE_OUTER_BOUND ( 'NONE', #103, .T. ) ;
#103 = EDGE_LOOP ( 'NONE', ( #71 ) ) ;
#104 = DIRECTION ( 'NONE',  ( 0.0000000000000000000, 1.000000000000000000, 0.0000000000000000000 ) ) ;
#105 = EDGE_LOOP ( 'NONE', ( #73 ) ) ;
#106 = CARTESIAN_POINT ( 'NONE',  ( 2.618611004132350143E-13, 1.999999999999994893, 75.00000000000000000 ) ) ;
#107 = DIRECTION ( 'NONE',  ( 0.0000000000000000000, 0.0000000000000000000, 1.000000000000000000 ) ) ;
#108 = LOCAL_TIME ( 10, 9, 52.00000000000000000, #68 ) ;
#109 = EDGE_CURVE ( 'NONE', #138, #138, #200, .T. ) ;
#110 = DIRECTION ( 'NONE',  ( -4.275831445896958607E-31, -1.000000000000000000, -1.224646799147353207E-16 ) ) ;
#111 = AXIS2_PLACEMENT_3D ( 'NONE', #202, #26, #61 ) ;
#112 = LOCAL_TIME ( 10, 9, 52.00000000000000000, #116 ) ;
#113 = CARTESIAN_POINT ( 'NONE',  ( 1.222018468595096801E-13, -4.286263797015736496E-15, 35.00000000000000000 ) ) ;
#114 = ORIENTED_EDGE ( 'NONE', *, *, #125, .F. ) ;
#115 = CC_DESIGN_DATE_AND_TIME_ASSIGNMENT ( #82, #187, ( #5 ) ) ;
#116 = COORDINATED_UNIVERSAL_TIME_OFFSET ( 1, 0, .AHEAD. ) ;
#117 = ORIENTED_EDGE ( 'NONE', *, *, #120, .T. ) ;
#118 = LOCAL_TIME ( 10, 9, 52.00000000000000000, #161 ) ;
#119 = PLANE ( 'NONE',  #43 ) ;
#120 = EDGE_CURVE ( 'NONE', #2, #2, #147, .T. ) ;
#121 = EDGE_LOOP ( 'NONE', ( #114 ) ) ;
#122 = ORGANIZATION ( 'UNSPECIFIED', 'UNSPECIFIED', '' ) ;
#123 = MECHANICAL_CONTEXT ( 'NONE', #93, 'mechanical' ) ;
#124 = PERSON_AND_ORGANIZATION ( #163, #122 ) ;
#125 = EDGE_CURVE ( 'NONE', #172, #172, #62, .T. ) ;
#126 = CALENDAR_DATE ( 2021, 9, 11 ) ;
#127 = SHAPE_DEFINITION_REPRESENTATION ( #139, #136 ) ;
#128 = CC_DESIGN_APPROVAL ( #3, ( #5 ) ) ;
#129 = ORIENTED_EDGE ( 'NONE', *, *, #120, .F. ) ;
#130 = CONICAL_SURFACE ( 'NONE', #111, 2.499999999999997335, 0.7853981633974691512 ) ;
#131 = CYLINDRICAL_SURFACE ( 'NONE', #1, 2.499999999999998668 ) ;
#132 = DIRECTION ( 'NONE',  ( 0.0000000000000000000, 1.000000000000000000, 0.0000000000000000000 ) ) ;
#133 = CALENDAR_DATE ( 2021, 9, 11 ) ;
#134 = DIRECTION ( 'NONE',  ( -3.491481338843133355E-15, 1.224646799147353207E-16, -1.000000000000000000 ) ) ;
#135 = DIRECTION ( 'NONE',  ( 3.491481338843133355E-15, -1.224646799147353207E-16, 1.000000000000000000 ) ) ;
#136 = ADVANCED_BREP_SHAPE_REPRESENTATION ( '57133', ( #23, #158, #174 ), #140 ) ;
#137 = DIRECTION ( 'NONE',  ( 3.491481338843133355E-15, -1.224646799147353207E-16, 1.000000000000000000 ) ) ;
#138 = VERTEX_POINT ( 'NONE', #106 ) ;
#139 = PRODUCT_DEFINITION_SHAPE ( 'NONE', 'NONE',  #5 ) ;
#140 =( GEOMETRIC_REPRESENTATION_CONTEXT ( 3 ) GLOBAL_UNCERTAINTY_ASSIGNED_CONTEXT ( ( #86 ) ) GLOBAL_UNIT_ASSIGNED_CONTEXT ( ( #16, #15, #203 ) ) REPRESENTATION_CONTEXT ( 'NONE', 'WORKASPACE' ) );
#141 = COORDINATED_UNIVERSAL_TIME_OFFSET ( 1, 0, .AHEAD. ) ;
#142 = PERSON_AND_ORGANIZATION ( #163, #122 ) ;
#143 = AXIS2_PLACEMENT_3D ( 'NONE', #89, #72, #170 ) ;
#144 = DATE_TIME_ROLE ( 'classification_date' ) ;
#145 = PERSON_AND_ORGANIZATION_ROLE ( 'design_supplier' ) ;
#146 = PERSON_AND_ORGANIZATION_ROLE ( 'creator' ) ;
#147 = CIRCLE ( 'NONE', #53, 2.500000000000000000 ) ;
#148 = EDGE_LOOP ( 'NONE', ( #11 ) ) ;
#149 = DESIGN_CONTEXT ( 'detailed design', #41, 'design' ) ;
#150 = CARTESIAN_POINT ( 'NONE',  ( -1.068957861474239564E-30, 3.749399456654644020E-32, -3.061616997868383141E-16 ) ) ;
#151 = CARTESIAN_POINT ( 'NONE',  ( 1.222018468595096801E-13, 1.874699728327315715E-32, 35.00000000000000000 ) ) ;
#152 = FACE_OUTER_BOUND ( 'NONE', #182, .T. ) ;
#153 = DIRECTION ( 'NONE',  ( -3.491481338843133355E-15, 1.224646799147353207E-16, -1.000000000000000000 ) ) ;
#154 = AXIS2_PLACEMENT_3D ( 'NONE', #10, #153, #104 ) ;
#155 = PRODUCT ( '57133', '57133', '', ( #123 ) ) ;
#156 = AXIS2_PLACEMENT_3D ( 'NONE', #57, #45, #132 ) ;
#157 = CARTESIAN_POINT ( 'NONE',  ( 2.601153597438135044E-13, 2.499999999999988454, 74.50000000000002842 ) ) ;
#158 = MANIFOLD_SOLID_BREP ( 'Corps-Déplacer/Copier1[2]', #166 ) ;
#159 = PERSON_AND_ORGANIZATION_ROLE ( 'classification_officer' ) ;
#160 = SECURITY_CLASSIFICATION ( '', '', #74 ) ;
#161 = COORDINATED_UNIVERSAL_TIME_OFFSET ( 1, 0, .AHEAD. ) ;
#162 = APPROVAL_STATUS ( 'not_yet_approved' ) ;
#163 = PERSON ( 'UNSPECIFIED', 'UNSPECIFIED', 'UNSPECIFIED', ('UNSPECIFIED'), ('UNSPECIFIED'), ('UNSPECIFIED') ) ;
#164 = EDGE_CURVE ( 'NONE', #49, #49, #194, .T. ) ;
#165 = DIRECTION ( 'NONE',  ( 0.0000000000000000000, 1.000000000000000000, 0.0000000000000000000 ) ) ;
#166 = CLOSED_SHELL ( 'NONE', ( #31, #58, #98 ) ) ;
#167 = DIRECTION ( 'NONE',  ( 4.275831445896959482E-31, 1.000000000000000000, 1.224646799147353207E-16 ) ) ;
#168 = CARTESIAN_POINT ( 'NONE',  ( -5.344789307371197820E-31, 1.874699728327322010E-32, -1.530808498934191571E-16 ) ) ;
#169 = FACE_OUTER_BOUND ( 'NONE', #8, .T. ) ;
#170 = DIRECTION ( 'NONE',  ( 4.275831445896958607E-31, 1.000000000000000000, 1.224646799147353207E-16 ) ) ;
#171 = PERSON_AND_ORGANIZATION ( #163, #122 ) ;
#172 = VERTEX_POINT ( 'NONE', #157 ) ;
#173 = CALENDAR_DATE ( 2021, 9, 11 ) ;
#174 = AXIS2_PLACEMENT_3D ( 'NONE', #35, #107, #184 ) ;
#175 = CARTESIAN_POINT ( 'NONE',  ( 0.0000000000000000000, 2.500000000000000000, 0.0000000000000000000 ) ) ;
#176 = PRODUCT_RELATED_PRODUCT_CATEGORY ( 'detail', '', ( #155 ) ) ;
#177 = PERSON_AND_ORGANIZATION ( #163, #122 ) ;
#178 = FACE_BOUND ( 'NONE', #38, .T. ) ;
#179 = ORIENTED_EDGE ( 'NONE', *, *, #109, .T. ) ;
#180 = CC_DESIGN_SECURITY_CLASSIFICATION ( #160, ( #37 ) ) ;
#181 = FACE_OUTER_BOUND ( 'NONE', #59, .T. ) ;
#182 = EDGE_LOOP ( 'NONE', ( #6 ) ) ;
#183 = CC_DESIGN_APPROVAL ( #12, ( #160 ) ) ;
#184 = DIRECTION ( 'NONE',  ( 1.000000000000000000, 0.0000000000000000000, 0.0000000000000000000 ) ) ;
#185 = ADVANCED_FACE ( 'NONE', ( #178, #198 ), #130, .T. ) ;
#186 = APPROVAL_ROLE ( '' ) ;
#187 = DATE_TIME_ROLE ( 'creation_date' ) ;
#188 = AXIS2_PLACEMENT_3D ( 'NONE', #113, #134, #165 ) ;
#189 = CC_DESIGN_PERSON_AND_ORGANIZATION_ASSIGNMENT ( #197, #145, ( #37 ) ) ;
#190 = APPROVAL_STATUS ( 'not_yet_approved' ) ;
#191 = PERSON_AND_ORGANIZATION ( #163, #122 ) ;
#192 = EDGE_CURVE ( 'NONE', #36, #36, #80, .T. ) ;
#193 = ORIENTED_EDGE ( 'NONE', *, *, #192, .F. ) ;
#194 = CIRCLE ( 'NONE', #188, 2.500000000000000000 ) ;
#195 = DIRECTION ( 'NONE',  ( -3.491481338843133355E-15, 1.224646799147353207E-16, -1.000000000000000000 ) ) ;
#196 = EDGE_LOOP ( 'NONE', ( #129 ) ) ;
#197 = PERSON_AND_ORGANIZATION ( #163, #122 ) ;
#198 = FACE_OUTER_BOUND ( 'NONE', #121, .T. ) ;
#199 = ADVANCED_FACE ( 'NONE', ( #92 ), #14, .F. ) ;
#200 = CIRCLE ( 'NONE', #66, 2.000000000000003997 ) ;
#201 = DIRECTION ( 'NONE',  ( -3.491481338843133355E-15, 1.224646799147353207E-16, -1.000000000000000000 ) ) ;
#202 = CARTESIAN_POINT ( 'NONE',  ( 2.601153597438135044E-13, -9.123618653647784315E-15, 74.50000000000002842 ) ) ;
#203 =( NAMED_UNIT ( * ) SI_UNIT ( $, .STERADIAN. ) SOLID_ANGLE_UNIT ( ) );
ENDSEC;
END-ISO-10303-21;
