ISO-10303-21;
HEADER;
FILE_DESCRIPTION (( 'STEP AP203' ),
    '1' );
FILE_NAME ('57125.step',
    '2021-11-09T09:09:52',
    ( '' ),
    ( '' ),
    'SwSTEP 2.0',
    'SolidWorks 2019',
    '' );
FILE_SCHEMA (( 'CONFIG_CONTROL_DESIGN' ));
ENDSEC;

DATA;
#1 = CARTESIAN_POINT ( 'NONE',  ( 0.0000000000000000000, 0.0000000000000000000, 0.0000000000000000000 ) ) ;
#2 = DIRECTION ( 'NONE',  ( 0.0000000000000000000, 1.000000000000000000, 0.0000000000000000000 ) ) ;
#3 = EDGE_LOOP ( 'NONE', ( #172 ) ) ;
#4 = ADVANCED_FACE ( 'NONE', ( #63 ), #123, .F. ) ;
#5 = APPROVAL_PERSON_ORGANIZATION ( #187, #10, #45 ) ;
#6 = EDGE_LOOP ( 'NONE', ( #102 ) ) ;
#7 = EDGE_LOOP ( 'NONE', ( #174 ) ) ;
#8 = DIRECTION ( 'NONE',  ( 3.491481338843133355E-15, -1.224646799147353207E-16, 1.000000000000000000 ) ) ;
#9 = AXIS2_PLACEMENT_3D ( 'NONE', #145, #147, #66 ) ;
#10 = APPROVAL ( #168, 'UNSPECIFIED' ) ;
#11 = CARTESIAN_POINT ( 'NONE',  ( 1.047444401652940007E-13, 1.999999999999996669, 30.00000000000000000 ) ) ;
#12 = PERSON_AND_ORGANIZATION_ROLE ( 'design_supplier' ) ;
#13 = AXIS2_PLACEMENT_3D ( 'NONE', #28, #181, #88 ) ;
#14 = DATE_AND_TIME ( #151, #89 ) ;
#15 = PERSON_AND_ORGANIZATION ( #78, #178 ) ;
#16 = EDGE_CURVE ( 'NONE', #196, #196, #20, .T. ) ;
#17 = MANIFOLD_SOLID_BREP ( 'Corps-Déplacer/Copier1[1]', #29 ) ;
#18 = ORIENTED_EDGE ( 'NONE', *, *, #134, .T. ) ;
#19 = ORIENTED_EDGE ( 'NONE', *, *, #120, .F. ) ;
#20 = CIRCLE ( 'NONE', #129, 1.999999999999995337 ) ;
#21 = CYLINDRICAL_SURFACE ( 'NONE', #60, 1.999999999999997335 ) ;
#22 = UNCERTAINTY_MEASURE_WITH_UNIT (LENGTH_MEASURE( 1.000000000000000082E-05 ), #106, 'distance_accuracy_value', 'NONE');
#23 = ADVANCED_FACE ( 'NONE', ( #160, #62 ), #21, .T. ) ;
#24 = CARTESIAN_POINT ( 'NONE',  ( 2.094888803305879761E-13, 1.599999999999990319, 59.99999999999999289 ) ) ;
#25 = PLANE ( 'NONE',  #50 ) ;
#26 = CARTESIAN_POINT ( 'NONE',  ( 1.047444401652940007E-13, 1.499759782661852681E-32, 30.00000000000000000 ) ) ;
#27 = CC_DESIGN_PERSON_AND_ORGANIZATION_ASSIGNMENT ( #118, #59, ( #80 ) ) ;
#28 = CARTESIAN_POINT ( 'NONE',  ( 0.0000000000000000000, 0.0000000000000000000, 0.0000000000000000000 ) ) ;
#29 = CLOSED_SHELL ( 'NONE', ( #202, #23, #92, #4 ) ) ;
#30 = SECURITY_CLASSIFICATION_LEVEL ( 'unclassified' ) ;
#31 = APPLICATION_PROTOCOL_DEFINITION ( 'international standard', 'config_control_design', 1994, #135 ) ;
#32 = DATE_AND_TIME ( #184, #110 ) ;
#33 = PRODUCT_RELATED_PRODUCT_CATEGORY ( 'detail', '', ( #69 ) ) ;
#34 = COORDINATED_UNIVERSAL_TIME_OFFSET ( 1, 0, .AHEAD. ) ;
#35 = ORIENTED_EDGE ( 'NONE', *, *, #134, .F. ) ;
#36 = FACE_OUTER_BOUND ( 'NONE', #83, .T. ) ;
#37 = FACE_OUTER_BOUND ( 'NONE', #6, .T. ) ;
#38 = FACE_OUTER_BOUND ( 'NONE', #82, .T. ) ;
#39 = PLANE ( 'NONE',  #94 ) ;
#40 = AXIS2_PLACEMENT_3D ( 'NONE', #1, #61, #84 ) ;
#41 = DIRECTION ( 'NONE',  ( 4.275831445896958607E-31, 1.000000000000000000, 1.224646799147353207E-16 ) ) ;
#42 = APPROVAL_ROLE ( '' ) ;
#43 = CIRCLE ( 'NONE', #9, 2.000000000000000000 ) ;
#44 = APPROVAL_STATUS ( 'not_yet_approved' ) ;
#45 = APPROVAL_ROLE ( '' ) ;
#46 = ADVANCED_FACE ( 'NONE', ( #81, #190 ), #141, .T. ) ;
#47 = PLANE ( 'NONE',  #198 ) ;
#48 = CARTESIAN_POINT ( 'NONE',  ( 0.0000000000000000000, 0.0000000000000000000, 0.0000000000000000000 ) ) ;
#49 = DIRECTION ( 'NONE',  ( 0.0000000000000000000, 1.000000000000000000, 0.0000000000000000000 ) ) ;
#50 = AXIS2_PLACEMENT_3D ( 'NONE', #71, #67, #41 ) ;
#51 = VERTEX_POINT ( 'NONE', #24 ) ;
#52 = FACE_OUTER_BOUND ( 'NONE', #173, .T. ) ;
#53 = DIRECTION ( 'NONE',  ( 4.275831445896958607E-31, 1.000000000000000000, 1.224646799147353207E-16 ) ) ;
#54 = DIRECTION ( 'NONE',  ( 3.491481338843133355E-15, -1.224646799147353207E-16, 1.000000000000000000 ) ) ;
#55 = APPROVAL_DATE_TIME ( #32, #175 ) ;
#56 = ADVANCED_FACE ( 'NONE', ( #36 ), #47, .T. ) ;
#57 = SHAPE_DEFINITION_REPRESENTATION ( #133, #101 ) ;
#58 =( GEOMETRIC_REPRESENTATION_CONTEXT ( 3 ) GLOBAL_UNCERTAINTY_ASSIGNED_CONTEXT ( ( #22 ) ) GLOBAL_UNIT_ASSIGNED_CONTEXT ( ( #106, #177, #108 ) ) REPRESENTATION_CONTEXT ( 'NONE', 'WORKASPACE' ) );
#59 = PERSON_AND_ORGANIZATION_ROLE ( 'creator' ) ;
#60 = AXIS2_PLACEMENT_3D ( 'NONE', #48, #158, #115 ) ;
#61 = DIRECTION ( 'NONE',  ( -3.491481338843133355E-15, 1.224646799147353207E-16, -1.000000000000000000 ) ) ;
#62 = FACE_OUTER_BOUND ( 'NONE', #7, .T. ) ;
#63 = FACE_OUTER_BOUND ( 'NONE', #143, .T. ) ;
#64 = CIRCLE ( 'NONE', #161, 2.000000000000000000 ) ;
#65 = DIRECTION ( 'NONE',  ( 4.275831445896958607E-31, 1.000000000000000000, 1.224646799147353207E-16 ) ) ;
#66 = DIRECTION ( 'NONE',  ( 0.0000000000000000000, 1.000000000000000000, 0.0000000000000000000 ) ) ;
#67 = DIRECTION ( 'NONE',  ( -3.491481338843133355E-15, 1.224646799147353207E-16, -1.000000000000000000 ) ) ;
#68 = LOCAL_TIME ( 10, 9, 52.00000000000000000, #167 ) ;
#69 = PRODUCT ( '57125', '57125', '', ( #179 ) ) ;
#70 = DIRECTION ( 'NONE',  ( 0.0000000000000000000, 1.000000000000000000, 0.0000000000000000000 ) ) ;
#71 = CARTESIAN_POINT ( 'NONE',  ( -4.275831445896957731E-31, 1.499759782661857608E-32, -1.224646799147353207E-16 ) ) ;
#72 = DIRECTION ( 'NONE',  ( -3.491481338843133355E-15, 1.224646799147353207E-16, -1.000000000000000000 ) ) ;
#73 = CALENDAR_DATE ( 2021, 9, 11 ) ;
#74 = APPROVAL_DATE_TIME ( #14, #10 ) ;
#75 = PERSON_AND_ORGANIZATION_ROLE ( 'classification_officer' ) ;
#76 = PERSON_AND_ORGANIZATION ( #78, #178 ) ;
#77 = CLOSED_SHELL ( 'NONE', ( #165, #46, #56 ) ) ;
#78 = PERSON ( 'UNSPECIFIED', 'UNSPECIFIED', 'UNSPECIFIED', ('UNSPECIFIED'), ('UNSPECIFIED'), ('UNSPECIFIED') ) ;
#79 = APPROVAL ( #170, 'UNSPECIFIED' ) ;
#80 = PRODUCT_DEFINITION_FORMATION_WITH_SPECIFIED_SOURCE ( 'ANY', '', #69, .NOT_KNOWN. ) ;
#81 = FACE_OUTER_BOUND ( 'NONE', #159, .T. ) ;
#82 = EDGE_LOOP ( 'NONE', ( #156 ) ) ;
#83 = EDGE_LOOP ( 'NONE', ( #144 ) ) ;
#84 = DIRECTION ( 'NONE',  ( 4.275831445896958607E-31, 1.000000000000000000, 1.224646799147353207E-16 ) ) ;
#85 = CC_DESIGN_PERSON_AND_ORGANIZATION_ASSIGNMENT ( #186, #12, ( #80 ) ) ;
#86 = DIRECTION ( 'NONE',  ( -3.491481338843133355E-15, 1.224646799147353207E-16, -1.000000000000000000 ) ) ;
#87 = CARTESIAN_POINT ( 'NONE',  ( 1.047444401652940007E-13, -3.673940397442059178E-15, 30.00000000000000000 ) ) ;
#88 = DIRECTION ( 'NONE',  ( 1.000000000000000000, 0.0000000000000000000, 0.0000000000000000000 ) ) ;
#89 = LOCAL_TIME ( 10, 9, 52.00000000000000000, #136 ) ;
#90 = PERSON_AND_ORGANIZATION_ROLE ( 'creator' ) ;
#91 = DATE_AND_TIME ( #138, #68 ) ;
#92 = ADVANCED_FACE ( 'NONE', ( #183, #38 ), #169, .T. ) ;
#93 = APPROVAL_ROLE ( '' ) ;
#94 = AXIS2_PLACEMENT_3D ( 'NONE', #193, #8, #128 ) ;
#95 = PERSON_AND_ORGANIZATION ( #78, #178 ) ;
#96 = EDGE_LOOP ( 'NONE', ( #18 ) ) ;
#97 = CARTESIAN_POINT ( 'NONE',  ( 2.094888803305880013E-13, 1.199807826129473360E-32, 60.00000000000000000 ) ) ;
#98 = AXIS2_PLACEMENT_3D ( 'NONE', #105, #116, #53 ) ;
#99 = ORIENTED_EDGE ( 'NONE', *, *, #191, .T. ) ;
#100 = CC_DESIGN_PERSON_AND_ORGANIZATION_ASSIGNMENT ( #95, #90, ( #104 ) ) ;
#101 = ADVANCED_BREP_SHAPE_REPRESENTATION ( '57125', ( #17, #153, #13 ), #58 ) ;
#102 = ORIENTED_EDGE ( 'NONE', *, *, #125, .T. ) ;
#103 = APPLICATION_CONTEXT ( 'configuration controlled 3d designs of mechanical parts and assemblies' ) ;
#104 = PRODUCT_DEFINITION ( 'UNKNOWN', '', #80, #176 ) ;
#105 = CARTESIAN_POINT ( 'NONE',  ( -8.551662891793915461E-31, 2.999519565323715216E-32, -2.449293598294706414E-16 ) ) ;
#106 =( LENGTH_UNIT ( ) NAMED_UNIT ( * ) SI_UNIT ( .MILLI., .METRE. ) );
#107 = DIRECTION ( 'NONE',  ( -3.491481338843133355E-15, 1.224646799147353207E-16, -1.000000000000000000 ) ) ;
#108 =( NAMED_UNIT ( * ) SI_UNIT ( $, .STERADIAN. ) SOLID_ANGLE_UNIT ( ) );
#109 = PERSON_AND_ORGANIZATION ( #78, #178 ) ;
#110 = LOCAL_TIME ( 10, 9, 52.00000000000000000, #111 ) ;
#111 = COORDINATED_UNIVERSAL_TIME_OFFSET ( 1, 0, .AHEAD. ) ;
#112 = DATE_TIME_ROLE ( 'creation_date' ) ;
#113 = AXIS2_PLACEMENT_3D ( 'NONE', #148, #86, #70 ) ;
#114 = CC_DESIGN_PERSON_AND_ORGANIZATION_ASSIGNMENT ( #109, #75, ( #157 ) ) ;
#115 = DIRECTION ( 'NONE',  ( 4.275831445896959482E-31, 1.000000000000000000, 1.224646799147353454E-16 ) ) ;
#116 = DIRECTION ( 'NONE',  ( -3.491481338843133355E-15, 1.224646799147353207E-16, -1.000000000000000000 ) ) ;
#117 = CARTESIAN_POINT ( 'NONE',  ( 1.710569414459005214E-46, 2.000000000000000000, 0.0000000000000000000 ) ) ;
#118 = PERSON_AND_ORGANIZATION ( #78, #178 ) ;
#119 = CALENDAR_DATE ( 2021, 9, 11 ) ;
#120 = EDGE_CURVE ( 'NONE', #163, #163, #155, .T. ) ;
#121 = PERSON_AND_ORGANIZATION_ROLE ( 'design_owner' ) ;
#122 = EDGE_LOOP ( 'NONE', ( #19 ) ) ;
#123 = PLANE ( 'NONE',  #188 ) ;
#124 = DIRECTION ( 'NONE',  ( -3.491481338843133355E-15, 1.224646799147353207E-16, -1.000000000000000000 ) ) ;
#125 = EDGE_CURVE ( 'NONE', #180, #180, #43, .T. ) ;
#126 = DIRECTION ( 'NONE',  ( -3.491481338843133355E-15, 1.224646799147353207E-16, -1.000000000000000000 ) ) ;
#127 = CARTESIAN_POINT ( 'NONE',  ( 1.047444401652940007E-13, 1.999999999999996669, 30.00000000000000000 ) ) ;
#128 = DIRECTION ( 'NONE',  ( -4.275831445896958607E-31, -1.000000000000000000, -1.224646799147353207E-16 ) ) ;
#129 = AXIS2_PLACEMENT_3D ( 'NONE', #192, #124, #2 ) ;
#130 = CC_DESIGN_APPROVAL ( #79, ( #157 ) ) ;
#131 = DIRECTION ( 'NONE',  ( -4.275831445896958607E-31, -1.000000000000000000, -1.224646799147353207E-16 ) ) ;
#132 = APPLICATION_PROTOCOL_DEFINITION ( 'international standard', 'config_control_design', 1994, #103 ) ;
#133 = PRODUCT_DEFINITION_SHAPE ( 'NONE', 'NONE',  #104 ) ;
#134 = EDGE_CURVE ( 'NONE', #51, #51, #182, .T. ) ;
#135 = APPLICATION_CONTEXT ( 'configuration controlled 3d designs of mechanical parts and assemblies' ) ;
#136 = COORDINATED_UNIVERSAL_TIME_OFFSET ( 1, 0, .AHEAD. ) ;
#137 = PERSON_AND_ORGANIZATION ( #78, #178 ) ;
#138 = CALENDAR_DATE ( 2021, 9, 11 ) ;
#139 = CC_DESIGN_DATE_AND_TIME_ASSIGNMENT ( #91, #201, ( #157 ) ) ;
#140 = LOCAL_TIME ( 10, 9, 52.00000000000000000, #199 ) ;
#141 = CYLINDRICAL_SURFACE ( 'NONE', #40, 2.000000000000000000 ) ;
#142 = ORIENTED_EDGE ( 'NONE', *, *, #120, .T. ) ;
#143 = EDGE_LOOP ( 'NONE', ( #35 ) ) ;
#144 = ORIENTED_EDGE ( 'NONE', *, *, #191, .F. ) ;
#145 = CARTESIAN_POINT ( 'NONE',  ( 1.047444401652940007E-13, -3.673940397442059178E-15, 30.00000000000000000 ) ) ;
#146 = VERTEX_POINT ( 'NONE', #127 ) ;
#147 = DIRECTION ( 'NONE',  ( -3.491481338843133355E-15, 1.224646799147353207E-16, -1.000000000000000000 ) ) ;
#148 = CARTESIAN_POINT ( 'NONE',  ( 2.094888803305879761E-13, -7.347880794884118356E-15, 59.99999999999999289 ) ) ;
#149 = CARTESIAN_POINT ( 'NONE',  ( 2.080922877950507480E-13, -7.298894922918224927E-15, 59.60000000000000142 ) ) ;
#150 = LOCAL_TIME ( 10, 9, 52.00000000000000000, #34 ) ;
#151 = CALENDAR_DATE ( 2021, 9, 11 ) ;
#152 = DATE_AND_TIME ( #119, #140 ) ;
#153 = MANIFOLD_SOLID_BREP ( 'Corps-Déplacer/Copier1[2]', #77 ) ;
#154 = APPROVAL_DATE_TIME ( #200, #79 ) ;
#155 = CIRCLE ( 'NONE', #98, 2.000000000000000000 ) ;
#156 = ORIENTED_EDGE ( 'NONE', *, *, #16, .F. ) ;
#157 = SECURITY_CLASSIFICATION ( '', '', #30 ) ;
#158 = DIRECTION ( 'NONE',  ( -3.491481338843133355E-15, 1.224646799147353207E-16, -1.000000000000000000 ) ) ;
#159 = EDGE_LOOP ( 'NONE', ( #99 ) ) ;
#160 = FACE_OUTER_BOUND ( 'NONE', #3, .T. ) ;
#161 = AXIS2_PLACEMENT_3D ( 'NONE', #87, #72, #49 ) ;
#162 = APPROVAL_PERSON_ORGANIZATION ( #137, #79, #93 ) ;
#163 = VERTEX_POINT ( 'NONE', #117 ) ;
#164 = DIRECTION ( 'NONE',  ( 0.0000000000000000000, 1.000000000000000000, 0.0000000000000000000 ) ) ;
#165 = ADVANCED_FACE ( 'NONE', ( #52 ), #25, .T. ) ;
#166 = AXIS2_PLACEMENT_3D ( 'NONE', #149, #107, #164 ) ;
#167 = COORDINATED_UNIVERSAL_TIME_OFFSET ( 1, 0, .AHEAD. ) ;
#168 = APPROVAL_STATUS ( 'not_yet_approved' ) ;
#169 = CONICAL_SURFACE ( 'NONE', #166, 1.999999999999995337, 0.7853981633974569387 ) ;
#170 = APPROVAL_STATUS ( 'not_yet_approved' ) ;
#171 = CC_DESIGN_SECURITY_CLASSIFICATION ( #157, ( #80 ) ) ;
#172 = ORIENTED_EDGE ( 'NONE', *, *, #16, .T. ) ;
#173 = EDGE_LOOP ( 'NONE', ( #142 ) ) ;
#174 = ORIENTED_EDGE ( 'NONE', *, *, #125, .F. ) ;
#175 = APPROVAL ( #44, 'UNSPECIFIED' ) ;
#176 = DESIGN_CONTEXT ( 'detailed design', #135, 'design' ) ;
#177 =( NAMED_UNIT ( * ) PLANE_ANGLE_UNIT ( ) SI_UNIT ( $, .RADIAN. ) );
#178 = ORGANIZATION ( 'UNSPECIFIED', 'UNSPECIFIED', '' ) ;
#179 = MECHANICAL_CONTEXT ( 'NONE', #103, 'mechanical' ) ;
#180 = VERTEX_POINT ( 'NONE', #11 ) ;
#181 = DIRECTION ( 'NONE',  ( 0.0000000000000000000, 0.0000000000000000000, 1.000000000000000000 ) ) ;
#182 = CIRCLE ( 'NONE', #113, 1.599999999999997646 ) ;
#183 = FACE_BOUND ( 'NONE', #96, .T. ) ;
#184 = CALENDAR_DATE ( 2021, 9, 11 ) ;
#185 = CC_DESIGN_APPROVAL ( #175, ( #80 ) ) ;
#186 = PERSON_AND_ORGANIZATION ( #78, #178 ) ;
#187 = PERSON_AND_ORGANIZATION ( #78, #178 ) ;
#188 = AXIS2_PLACEMENT_3D ( 'NONE', #97, #126, #65 ) ;
#189 = CC_DESIGN_DATE_AND_TIME_ASSIGNMENT ( #152, #112, ( #104 ) ) ;
#190 = FACE_OUTER_BOUND ( 'NONE', #122, .T. ) ;
#191 = EDGE_CURVE ( 'NONE', #146, #146, #64, .T. ) ;
#192 = CARTESIAN_POINT ( 'NONE',  ( 2.080922877950507480E-13, -7.298894922918224927E-15, 59.60000000000000142 ) ) ;
#193 = CARTESIAN_POINT ( 'NONE',  ( 1.047444401652940007E-13, 1.499759782661852681E-32, 30.00000000000000000 ) ) ;
#194 = CARTESIAN_POINT ( 'NONE',  ( 2.080922877950507480E-13, 1.999999999999988010, 59.60000000000000142 ) ) ;
#195 = APPROVAL_PERSON_ORGANIZATION ( #15, #175, #42 ) ;
#196 = VERTEX_POINT ( 'NONE', #194 ) ;
#197 = CC_DESIGN_PERSON_AND_ORGANIZATION_ASSIGNMENT ( #76, #121, ( #69 ) ) ;
#198 = AXIS2_PLACEMENT_3D ( 'NONE', #26, #54, #131 ) ;
#199 = COORDINATED_UNIVERSAL_TIME_OFFSET ( 1, 0, .AHEAD. ) ;
#200 = DATE_AND_TIME ( #73, #150 ) ;
#201 = DATE_TIME_ROLE ( 'classification_date' ) ;
#202 = ADVANCED_FACE ( 'NONE', ( #37 ), #39, .F. ) ;
#203 = CC_DESIGN_APPROVAL ( #10, ( #104 ) ) ;
ENDSEC;
END-ISO-10303-21;
