ISO-10303-21;
HEADER;
FILE_DESCRIPTION (( 'STEP AP203' ),
    '1' );
FILE_NAME ('57124.step',
    '2021-11-09T09:09:52',
    ( '' ),
    ( '' ),
    'SwSTEP 2.0',
    'SolidWorks 2019',
    '' );
FILE_SCHEMA (( 'CONFIG_CONTROL_DESIGN' ));
ENDSEC;

DATA;
#1 = EDGE_CURVE ( 'NONE', #93, #93, #22, .T. ) ;
#2 = PERSON_AND_ORGANIZATION ( #4, #85 ) ;
#3 = APPLICATION_CONTEXT ( 'configuration controlled 3d designs of mechanical parts and assemblies' ) ;
#4 = PERSON ( 'UNSPECIFIED', 'UNSPECIFIED', 'UNSPECIFIED', ('UNSPECIFIED'), ('UNSPECIFIED'), ('UNSPECIFIED') ) ;
#5 = EDGE_LOOP ( 'NONE', ( #153 ) ) ;
#6 = LOCAL_TIME ( 10, 9, 52.00000000000000000, #50 ) ;
#7 = PRODUCT_DEFINITION_SHAPE ( 'NONE', 'NONE',  #23 ) ;
#8 = AXIS2_PLACEMENT_3D ( 'NONE', #71, #156, #119 ) ;
#9 = FACE_OUTER_BOUND ( 'NONE', #84, .T. ) ;
#10 = DIRECTION ( 'NONE',  ( 0.0000000000000000000, 1.000000000000000000, 0.0000000000000000000 ) ) ;
#11 = FACE_OUTER_BOUND ( 'NONE', #5, .T. ) ;
#12 = DIRECTION ( 'NONE',  ( -3.491481338843133355E-15, 1.224646799147353207E-16, -1.000000000000000000 ) ) ;
#13 = EDGE_LOOP ( 'NONE', ( #182 ) ) ;
#14 = CARTESIAN_POINT ( 'NONE',  ( 1.047444401652940007E-13, 1.499999999999996225, 30.00000000000000000 ) ) ;
#15 = PERSON_AND_ORGANIZATION_ROLE ( 'creator' ) ;
#16 = CARTESIAN_POINT ( 'NONE',  ( 1.047444401652940007E-13, 1.499999999999996225, 30.00000000000000000 ) ) ;
#17 = PERSON_AND_ORGANIZATION_ROLE ( 'design_owner' ) ;
#18 = ADVANCED_FACE ( 'NONE', ( #30 ), #196, .F. ) ;
#19 = CALENDAR_DATE ( 2021, 9, 11 ) ;
#20 = AXIS2_PLACEMENT_3D ( 'NONE', #107, #138, #195 ) ;
#21 = DATE_TIME_ROLE ( 'classification_date' ) ;
#22 = CIRCLE ( 'NONE', #52, 1.199999999999996625 ) ;
#23 = PRODUCT_DEFINITION ( 'UNKNOWN', '', #200, #167 ) ;
#24 = EDGE_LOOP ( 'NONE', ( #193 ) ) ;
#25 = CC_DESIGN_APPROVAL ( #190, ( #23 ) ) ;
#26 = DIRECTION ( 'NONE',  ( -3.491481338843133355E-15, 1.224646799147353207E-16, -1.000000000000000000 ) ) ;
#27 = UNCERTAINTY_MEASURE_WITH_UNIT (LENGTH_MEASURE( 1.000000000000000082E-05 ), #108, 'distance_accuracy_value', 'NONE');
#28 = CARTESIAN_POINT ( 'NONE',  ( 1.047444401652940007E-13, 1.124819836996387869E-32, 30.00000000000000000 ) ) ;
#29 = CARTESIAN_POINT ( 'NONE',  ( -3.206873584422718517E-31, 1.124819836996392932E-32, -9.184850993605147205E-17 ) ) ;
#30 = FACE_OUTER_BOUND ( 'NONE', #86, .T. ) ;
#31 = CONICAL_SURFACE ( 'NONE', #135, 1.499999999999998224, 0.7853981633974598253 ) ;
#32 = DIRECTION ( 'NONE',  ( 0.0000000000000000000, 1.000000000000000000, 0.0000000000000000000 ) ) ;
#33 = CC_DESIGN_APPROVAL ( #82, ( #200 ) ) ;
#34 = VERTEX_POINT ( 'NONE', #14 ) ;
#35 = CC_DESIGN_PERSON_AND_ORGANIZATION_ASSIGNMENT ( #191, #15, ( #200 ) ) ;
#36 = CC_DESIGN_DATE_AND_TIME_ASSIGNMENT ( #38, #21, ( #159 ) ) ;
#37 = AXIS2_PLACEMENT_3D ( 'NONE', #175, #201, #145 ) ;
#38 = DATE_AND_TIME ( #110, #6 ) ;
#39 = ADVANCED_FACE ( 'NONE', ( #11 ), #76, .T. ) ;
#40 = AXIS2_PLACEMENT_3D ( 'NONE', #170, #12, #74 ) ;
#41 = DIRECTION ( 'NONE',  ( 0.0000000000000000000, 1.000000000000000000, 0.0000000000000000000 ) ) ;
#42 = DIRECTION ( 'NONE',  ( -3.491481338843133355E-15, 1.224646799147353207E-16, -1.000000000000000000 ) ) ;
#43 = DIRECTION ( 'NONE',  ( -3.491481338843133355E-15, 1.224646799147353207E-16, -1.000000000000000000 ) ) ;
#44 = CYLINDRICAL_SURFACE ( 'NONE', #20, 1.499999999999999556 ) ;
#45 = APPLICATION_CONTEXT ( 'configuration controlled 3d designs of mechanical parts and assemblies' ) ;
#46 = VERTEX_POINT ( 'NONE', #176 ) ;
#47 = DATE_AND_TIME ( #96, #169 ) ;
#48 = DATE_AND_TIME ( #81, #113 ) ;
#49 = ADVANCED_BREP_SHAPE_REPRESENTATION ( '57124', ( #186, #188, #37 ), #70 ) ;
#50 = COORDINATED_UNIVERSAL_TIME_OFFSET ( 1, 0, .AHEAD. ) ;
#51 = PERSON_AND_ORGANIZATION_ROLE ( 'classification_officer' ) ;
#52 = AXIS2_PLACEMENT_3D ( 'NONE', #155, #142, #32 ) ;
#53 = ADVANCED_FACE ( 'NONE', ( #185, #172 ), #31, .T. ) ;
#54 = ORIENTED_EDGE ( 'NONE', *, *, #136, .T. ) ;
#55 = FACE_OUTER_BOUND ( 'NONE', #139, .T. ) ;
#56 = CC_DESIGN_APPROVAL ( #137, ( #159 ) ) ;
#57 = ORIENTED_EDGE ( 'NONE', *, *, #98, .T. ) ;
#58 = DIRECTION ( 'NONE',  ( -3.491481338843133355E-15, 1.224646799147353207E-16, -1.000000000000000000 ) ) ;
#59 = DIRECTION ( 'NONE',  ( -3.491481338843133355E-15, 1.224646799147353207E-16, -1.000000000000000000 ) ) ;
#60 = CC_DESIGN_PERSON_AND_ORGANIZATION_ASSIGNMENT ( #202, #17, ( #134 ) ) ;
#61 = APPROVAL_PERSON_ORGANIZATION ( #178, #190, #64 ) ;
#62 = EDGE_LOOP ( 'NONE', ( #57 ) ) ;
#63 = CARTESIAN_POINT ( 'NONE',  ( 2.094888803305880013E-13, 1.199999999999989297, 60.00000000000000000 ) ) ;
#64 = APPROVAL_ROLE ( '' ) ;
#65 = APPROVAL_DATE_TIME ( #48, #190 ) ;
#66 = DATE_AND_TIME ( #129, #102 ) ;
#67 = PERSON_AND_ORGANIZATION_ROLE ( 'design_supplier' ) ;
#68 = PERSON_AND_ORGANIZATION_ROLE ( 'creator' ) ;
#69 = EDGE_LOOP ( 'NONE', ( #150 ) ) ;
#70 =( GEOMETRIC_REPRESENTATION_CONTEXT ( 3 ) GLOBAL_UNCERTAINTY_ASSIGNED_CONTEXT ( ( #27 ) ) GLOBAL_UNIT_ASSIGNED_CONTEXT ( ( #108, #123, #162 ) ) REPRESENTATION_CONTEXT ( 'NONE', 'WORKASPACE' ) );
#71 = CARTESIAN_POINT ( 'NONE',  ( -6.413747168845437034E-31, 2.249639673992785864E-32, -1.836970198721029441E-16 ) ) ;
#72 = DIRECTION ( 'NONE',  ( -4.275831445896958607E-31, -1.000000000000000000, -1.224646799147353207E-16 ) ) ;
#73 = FACE_OUTER_BOUND ( 'NONE', #69, .T. ) ;
#74 = DIRECTION ( 'NONE',  ( 4.275831445896958607E-31, 1.000000000000000000, 1.224646799147353207E-16 ) ) ;
#75 = EDGE_CURVE ( 'NONE', #46, #46, #164, .T. ) ;
#76 = PLANE ( 'NONE',  #179 ) ;
#77 = APPROVAL_PERSON_ORGANIZATION ( #2, #82, #148 ) ;
#78 = MECHANICAL_CONTEXT ( 'NONE', #45, 'mechanical' ) ;
#79 = VERTEX_POINT ( 'NONE', #109 ) ;
#80 = APPLICATION_PROTOCOL_DEFINITION ( 'international standard', 'config_control_design', 1994, #3 ) ;
#81 = CALENDAR_DATE ( 2021, 9, 11 ) ;
#82 = APPROVAL ( #126, 'UNSPECIFIED' ) ;
#83 = CC_DESIGN_SECURITY_CLASSIFICATION ( #159, ( #200 ) ) ;
#84 = EDGE_LOOP ( 'NONE', ( #101 ) ) ;
#85 = ORGANIZATION ( 'UNSPECIFIED', 'UNSPECIFIED', '' ) ;
#86 = EDGE_LOOP ( 'NONE', ( #54 ) ) ;
#87 = PLANE ( 'NONE',  #40 ) ;
#88 = CIRCLE ( 'NONE', #147, 1.499999999999999778 ) ;
#89 = ADVANCED_FACE ( 'NONE', ( #9 ), #87, .F. ) ;
#90 = ORIENTED_EDGE ( 'NONE', *, *, #136, .F. ) ;
#91 = CARTESIAN_POINT ( 'NONE',  ( 1.047444401652940007E-13, -3.673940397442059178E-15, 30.00000000000000000 ) ) ;
#92 = AXIS2_PLACEMENT_3D ( 'NONE', #181, #171, #72 ) ;
#93 = VERTEX_POINT ( 'NONE', #63 ) ;
#94 = APPROVAL_ROLE ( '' ) ;
#95 = DIRECTION ( 'NONE',  ( -4.275831445896958607E-31, -1.000000000000000000, -1.224646799147353207E-16 ) ) ;
#96 = CALENDAR_DATE ( 2021, 9, 11 ) ;
#97 = APPROVAL_DATE_TIME ( #66, #82 ) ;
#98 = EDGE_CURVE ( 'NONE', #160, #160, #194, .T. ) ;
#99 = COORDINATED_UNIVERSAL_TIME_OFFSET ( 1, 0, .AHEAD. ) ;
#100 = CIRCLE ( 'NONE', #143, 1.499999999999998224 ) ;
#101 = ORIENTED_EDGE ( 'NONE', *, *, #1, .F. ) ;
#102 = LOCAL_TIME ( 10, 9, 52.00000000000000000, #99 ) ;
#103 = PLANE ( 'NONE',  #127 ) ;
#104 = CARTESIAN_POINT ( 'NONE',  ( 0.0000000000000000000, 0.0000000000000000000, 0.0000000000000000000 ) ) ;
#105 = DIRECTION ( 'NONE',  ( 4.275831445896958607E-31, 1.000000000000000000, 1.224646799147353207E-16 ) ) ;
#106 = PRODUCT_RELATED_PRODUCT_CATEGORY ( 'detail', '', ( #134 ) ) ;
#107 = CARTESIAN_POINT ( 'NONE',  ( 0.0000000000000000000, 0.0000000000000000000, 0.0000000000000000000 ) ) ;
#108 =( LENGTH_UNIT ( ) NAMED_UNIT ( * ) SI_UNIT ( .MILLI., .METRE. ) );
#109 = CARTESIAN_POINT ( 'NONE',  ( 2.084414359289350802E-13, 1.499999999999990896, 59.70000000000000284 ) ) ;
#110 = CALENDAR_DATE ( 2021, 9, 11 ) ;
#111 = PERSON_AND_ORGANIZATION ( #4, #85 ) ;
#112 = ADVANCED_FACE ( 'NONE', ( #141, #55 ), #198, .T. ) ;
#113 = LOCAL_TIME ( 10, 9, 52.00000000000000000, #161 ) ;
#114 = CC_DESIGN_PERSON_AND_ORGANIZATION_ASSIGNMENT ( #203, #51, ( #159 ) ) ;
#115 = PERSON_AND_ORGANIZATION ( #4, #85 ) ;
#116 = CC_DESIGN_DATE_AND_TIME_ASSIGNMENT ( #47, #163, ( #23 ) ) ;
#117 = CARTESIAN_POINT ( 'NONE',  ( 2.084414359289350802E-13, -7.311141390909699073E-15, 59.70000000000000284 ) ) ;
#118 = APPROVAL_PERSON_ORGANIZATION ( #115, #137, #94 ) ;
#119 = DIRECTION ( 'NONE',  ( 4.275831445896958607E-31, 1.000000000000000000, 1.224646799147353207E-16 ) ) ;
#120 = ORIENTED_EDGE ( 'NONE', *, *, #174, .T. ) ;
#121 = FACE_OUTER_BOUND ( 'NONE', #13, .T. ) ;
#122 = FACE_OUTER_BOUND ( 'NONE', #62, .T. ) ;
#123 =( NAMED_UNIT ( * ) PLANE_ANGLE_UNIT ( ) SI_UNIT ( $, .RADIAN. ) );
#124 = SECURITY_CLASSIFICATION_LEVEL ( 'unclassified' ) ;
#125 = APPLICATION_PROTOCOL_DEFINITION ( 'international standard', 'config_control_design', 1994, #45 ) ;
#126 = APPROVAL_STATUS ( 'not_yet_approved' ) ;
#127 = AXIS2_PLACEMENT_3D ( 'NONE', #28, #154, #95 ) ;
#128 = CC_DESIGN_PERSON_AND_ORGANIZATION_ASSIGNMENT ( #111, #67, ( #200 ) ) ;
#129 = CALENDAR_DATE ( 2021, 9, 11 ) ;
#130 = COORDINATED_UNIVERSAL_TIME_OFFSET ( 1, 0, .AHEAD. ) ;
#131 = APPROVAL_STATUS ( 'not_yet_approved' ) ;
#132 = CLOSED_SHELL ( 'NONE', ( #18, #112, #53, #89 ) ) ;
#133 = EDGE_LOOP ( 'NONE', ( #120 ) ) ;
#134 = PRODUCT ( '57124', '57124', '', ( #78 ) ) ;
#135 = AXIS2_PLACEMENT_3D ( 'NONE', #197, #58, #199 ) ;
#136 = EDGE_CURVE ( 'NONE', #34, #34, #88, .T. ) ;
#137 = APPROVAL ( #189, 'UNSPECIFIED' ) ;
#138 = DIRECTION ( 'NONE',  ( -3.491481338843133355E-15, 1.224646799147353207E-16, -1.000000000000000000 ) ) ;
#139 = EDGE_LOOP ( 'NONE', ( #90 ) ) ;
#140 = CARTESIAN_POINT ( 'NONE',  ( 1.047444401652940007E-13, -3.673940397442059178E-15, 30.00000000000000000 ) ) ;
#141 = FACE_OUTER_BOUND ( 'NONE', #133, .T. ) ;
#142 = DIRECTION ( 'NONE',  ( -3.491481338843133355E-15, 1.224646799147353207E-16, -1.000000000000000000 ) ) ;
#143 = AXIS2_PLACEMENT_3D ( 'NONE', #117, #180, #41 ) ;
#144 = PERSON_AND_ORGANIZATION ( #4, #85 ) ;
#145 = DIRECTION ( 'NONE',  ( 1.000000000000000000, 0.0000000000000000000, 0.0000000000000000000 ) ) ;
#146 = COORDINATED_UNIVERSAL_TIME_OFFSET ( 1, 0, .AHEAD. ) ;
#147 = AXIS2_PLACEMENT_3D ( 'NONE', #91, #26, #184 ) ;
#148 = APPROVAL_ROLE ( '' ) ;
#149 = SHAPE_DEFINITION_REPRESENTATION ( #7, #49 ) ;
#150 = ORIENTED_EDGE ( 'NONE', *, *, #98, .F. ) ;
#151 = LOCAL_TIME ( 10, 9, 52.00000000000000000, #130 ) ;
#152 = CLOSED_SHELL ( 'NONE', ( #39, #158, #183 ) ) ;
#153 = ORIENTED_EDGE ( 'NONE', *, *, #75, .T. ) ;
#154 = DIRECTION ( 'NONE',  ( 3.491481338843133355E-15, -1.224646799147353207E-16, 1.000000000000000000 ) ) ;
#155 = CARTESIAN_POINT ( 'NONE',  ( 2.094888803305880013E-13, -7.347880794884118356E-15, 60.00000000000000000 ) ) ;
#156 = DIRECTION ( 'NONE',  ( -3.491481338843133355E-15, 1.224646799147353207E-16, -1.000000000000000000 ) ) ;
#157 = EDGE_LOOP ( 'NONE', ( #166 ) ) ;
#158 = ADVANCED_FACE ( 'NONE', ( #122, #121 ), #44, .T. ) ;
#159 = SECURITY_CLASSIFICATION ( '', '', #124 ) ;
#160 = VERTEX_POINT ( 'NONE', #16 ) ;
#161 = COORDINATED_UNIVERSAL_TIME_OFFSET ( 1, 0, .AHEAD. ) ;
#162 =( NAMED_UNIT ( * ) SI_UNIT ( $, .STERADIAN. ) SOLID_ANGLE_UNIT ( ) );
#163 = DATE_TIME_ROLE ( 'creation_date' ) ;
#164 = CIRCLE ( 'NONE', #8, 1.499999999999999556 ) ;
#165 = CC_DESIGN_PERSON_AND_ORGANIZATION_ASSIGNMENT ( #144, #68, ( #23 ) ) ;
#166 = ORIENTED_EDGE ( 'NONE', *, *, #174, .F. ) ;
#167 = DESIGN_CONTEXT ( 'detailed design', #3, 'design' ) ;
#168 = DIRECTION ( 'NONE',  ( 4.275831445896958607E-31, 1.000000000000000000, 1.224646799147353454E-16 ) ) ;
#169 = LOCAL_TIME ( 10, 9, 52.00000000000000000, #146 ) ;
#170 = CARTESIAN_POINT ( 'NONE',  ( 2.094888803305880013E-13, 8.998558695971011538E-33, 60.00000000000000000 ) ) ;
#171 = DIRECTION ( 'NONE',  ( 3.491481338843133355E-15, -1.224646799147353207E-16, 1.000000000000000000 ) ) ;
#172 = FACE_OUTER_BOUND ( 'NONE', #157, .T. ) ;
#173 = AXIS2_PLACEMENT_3D ( 'NONE', #140, #42, #10 ) ;
#174 = EDGE_CURVE ( 'NONE', #79, #79, #100, .T. ) ;
#175 = CARTESIAN_POINT ( 'NONE',  ( 0.0000000000000000000, 0.0000000000000000000, 0.0000000000000000000 ) ) ;
#176 = CARTESIAN_POINT ( 'NONE',  ( -8.552847072295026068E-47, 1.499999999999999556, 0.0000000000000000000 ) ) ;
#177 = DATE_AND_TIME ( #19, #151 ) ;
#178 = PERSON_AND_ORGANIZATION ( #4, #85 ) ;
#179 = AXIS2_PLACEMENT_3D ( 'NONE', #29, #43, #105 ) ;
#180 = DIRECTION ( 'NONE',  ( -3.491481338843133355E-15, 1.224646799147353207E-16, -1.000000000000000000 ) ) ;
#181 = CARTESIAN_POINT ( 'NONE',  ( 1.047444401652940007E-13, 1.124819836996387869E-32, 30.00000000000000000 ) ) ;
#182 = ORIENTED_EDGE ( 'NONE', *, *, #75, .F. ) ;
#183 = ADVANCED_FACE ( 'NONE', ( #73 ), #103, .T. ) ;
#184 = DIRECTION ( 'NONE',  ( 0.0000000000000000000, 1.000000000000000000, 0.0000000000000000000 ) ) ;
#185 = FACE_BOUND ( 'NONE', #24, .T. ) ;
#186 = MANIFOLD_SOLID_BREP ( 'Corps-Déplacer/Copier1[1]', #132 ) ;
#187 = APPROVAL_DATE_TIME ( #177, #137 ) ;
#188 = MANIFOLD_SOLID_BREP ( 'Corps-Déplacer/Copier1[2]', #152 ) ;
#189 = APPROVAL_STATUS ( 'not_yet_approved' ) ;
#190 = APPROVAL ( #131, 'UNSPECIFIED' ) ;
#191 = PERSON_AND_ORGANIZATION ( #4, #85 ) ;
#192 = AXIS2_PLACEMENT_3D ( 'NONE', #104, #59, #168 ) ;
#193 = ORIENTED_EDGE ( 'NONE', *, *, #1, .T. ) ;
#194 = CIRCLE ( 'NONE', #173, 1.499999999999999778 ) ;
#195 = DIRECTION ( 'NONE',  ( 4.275831445896958607E-31, 1.000000000000000000, 1.224646799147353207E-16 ) ) ;
#196 = PLANE ( 'NONE',  #92 ) ;
#197 = CARTESIAN_POINT ( 'NONE',  ( 2.084414359289350802E-13, -7.311141390909699073E-15, 59.70000000000000284 ) ) ;
#198 = CYLINDRICAL_SURFACE ( 'NONE', #192, 1.499999999999999112 ) ;
#199 = DIRECTION ( 'NONE',  ( 0.0000000000000000000, 1.000000000000000000, 0.0000000000000000000 ) ) ;
#200 = PRODUCT_DEFINITION_FORMATION_WITH_SPECIFIED_SOURCE ( 'ANY', '', #134, .NOT_KNOWN. ) ;
#201 = DIRECTION ( 'NONE',  ( 0.0000000000000000000, 0.0000000000000000000, 1.000000000000000000 ) ) ;
#202 = PERSON_AND_ORGANIZATION ( #4, #85 ) ;
#203 = PERSON_AND_ORGANIZATION ( #4, #85 ) ;
ENDSEC;
END-ISO-10303-21;
