ISO-10303-21;
HEADER;
FILE_DESCRIPTION (( 'STEP AP203' ),
    '1' );
FILE_NAME ('57123.step',
    '2021-11-15T15:41:56',
    ( '' ),
    ( '' ),
    'SwSTEP 2.0',
    'SolidWorks 2019',
    '' );
FILE_SCHEMA (( 'CONFIG_CONTROL_DESIGN' ));
ENDSEC;

DATA;
#1 = CC_DESIGN_PERSON_AND_ORGANIZATION_ASSIGNMENT ( #153, #70, ( #201 ) ) ;
#2 = DIRECTION ( 'NONE',  ( 0.0000000000000000000, 1.000000000000000000, 0.0000000000000000000 ) ) ;
#3 = FACE_OUTER_BOUND ( 'NONE', #42, .T. ) ;
#4 = CLOSED_SHELL ( 'NONE', ( #147, #18, #76 ) ) ;
#5 = LOCAL_TIME ( 16, 41, 56.00000000000000000, #180 ) ;
#6 = DIRECTION ( 'NONE',  ( -3.491481338843133355E-15, 1.224646799147353207E-16, -1.000000000000000000 ) ) ;
#7 = PERSON_AND_ORGANIZATION ( #72, #170 ) ;
#8 = DATE_AND_TIME ( #67, #196 ) ;
#9 = CC_DESIGN_APPROVAL ( #148, ( #201 ) ) ;
#10 = PERSON_AND_ORGANIZATION_ROLE ( 'creator' ) ;
#11 = DATE_AND_TIME ( #95, #5 ) ;
#12 = ORIENTED_EDGE ( 'NONE', *, *, #197, .F. ) ;
#13 = ADVANCED_FACE ( 'NONE', ( #87 ), #22, .F. ) ;
#14 =( NAMED_UNIT ( * ) PLANE_ANGLE_UNIT ( ) SI_UNIT ( $, .RADIAN. ) );
#15 = ORIENTED_EDGE ( 'NONE', *, *, #166, .T. ) ;
#16 = ORIENTED_EDGE ( 'NONE', *, *, #203, .T. ) ;
#17 = EDGE_LOOP ( 'NONE', ( #16 ) ) ;
#18 = ADVANCED_FACE ( 'NONE', ( #46, #81 ), #90, .T. ) ;
#19 = DIRECTION ( 'NONE',  ( 4.275831445896959482E-31, 1.000000000000000000, 1.224646799147353207E-16 ) ) ;
#20 = AXIS2_PLACEMENT_3D ( 'NONE', #144, #33, #174 ) ;
#21 = DIRECTION ( 'NONE',  ( 3.491481338843133355E-15, -1.224646799147353207E-16, 1.000000000000000000 ) ) ;
#22 = PLANE ( 'NONE',  #114 ) ;
#23 = CARTESIAN_POINT ( 'NONE',  ( 1.728283262727351074E-13, -6.062001655779398511E-15, 49.50000000000000000 ) ) ;
#24 = DIRECTION ( 'NONE',  ( 4.275831445896958607E-31, 1.000000000000000000, 1.224646799147353207E-16 ) ) ;
#25 = COORDINATED_UNIVERSAL_TIME_OFFSET ( 1, 0, .AHEAD. ) ;
#26 = ADVANCED_FACE ( 'NONE', ( #191, #3 ), #65, .T. ) ;
#27 = DATE_TIME_ROLE ( 'creation_date' ) ;
#28 = PERSON_AND_ORGANIZATION_ROLE ( 'design_supplier' ) ;
#29 = CARTESIAN_POINT ( 'NONE',  ( 0.0000000000000000000, 0.0000000000000000000, 0.0000000000000000000 ) ) ;
#30 = ORIENTED_EDGE ( 'NONE', *, *, #38, .T. ) ;
#31 = CLOSED_SHELL ( 'NONE', ( #184, #26, #45, #13 ) ) ;
#32 = VERTEX_POINT ( 'NONE', #143 ) ;
#33 = DIRECTION ( 'NONE',  ( -3.491481338843133355E-15, 1.224646799147353207E-16, -1.000000000000000000 ) ) ;
#34 = CARTESIAN_POINT ( 'NONE',  ( 1.745740669421566678E-13, 1.874699728327314073E-32, 50.00000000000000000 ) ) ;
#35 = CARTESIAN_POINT ( 'NONE',  ( 5.586370142149013368E-14, 2.249639673992783401E-32, 16.00000000000000000 ) ) ;
#36 = DIRECTION ( 'NONE',  ( -4.275831445896958607E-31, -1.000000000000000000, -1.224646799147353207E-16 ) ) ;
#37 = DATE_TIME_ROLE ( 'classification_date' ) ;
#38 = EDGE_CURVE ( 'NONE', #110, #110, #74, .T. ) ;
#39 = PERSON_AND_ORGANIZATION ( #72, #170 ) ;
#40 = APPLICATION_PROTOCOL_DEFINITION ( 'international standard', 'config_control_design', 1994, #123 ) ;
#41 = APPROVAL_DATE_TIME ( #8, #141 ) ;
#42 = EDGE_LOOP ( 'NONE', ( #12 ) ) ;
#43 = ORIENTED_EDGE ( 'NONE', *, *, #203, .F. ) ;
#44 = CARTESIAN_POINT ( 'NONE',  ( 1.728283262727351074E-13, 2.999999999999988898, 49.50000000000000000 ) ) ;
#45 = ADVANCED_FACE ( 'NONE', ( #77, #63 ), #99, .T. ) ;
#46 = FACE_OUTER_BOUND ( 'NONE', #172, .T. ) ;
#47 = AXIS2_PLACEMENT_3D ( 'NONE', #127, #21, #36 ) ;
#48 = CARTESIAN_POINT ( 'NONE',  ( 5.586370142149013368E-14, -1.959434878635765131E-15, 16.00000000000000000 ) ) ;
#49 = CARTESIAN_POINT ( 'NONE',  ( 5.586370142149013368E-14, -1.959434878635765131E-15, 16.00000000000000000 ) ) ;
#50 = APPROVAL_DATE_TIME ( #183, #61 ) ;
#51 =( LENGTH_UNIT ( ) NAMED_UNIT ( * ) SI_UNIT ( .MILLI., .METRE. ) );
#52 = PERSON_AND_ORGANIZATION_ROLE ( 'creator' ) ;
#53 = DIRECTION ( 'NONE',  ( 1.000000000000000000, 0.0000000000000000000, 0.0000000000000000000 ) ) ;
#54 = PRODUCT_RELATED_PRODUCT_CATEGORY ( 'detail', '', ( #125 ) ) ;
#55 = CIRCLE ( 'NONE', #200, 2.999999999999994671 ) ;
#56 = UNCERTAINTY_MEASURE_WITH_UNIT (LENGTH_MEASURE( 1.000000000000000082E-05 ), #51, 'distance_accuracy_value', 'NONE');
#57 = DESIGN_CONTEXT ( 'detailed design', #135, 'design' ) ;
#58 = DIRECTION ( 'NONE',  ( 0.0000000000000000000, 1.000000000000000000, 0.0000000000000000000 ) ) ;
#59 = CC_DESIGN_SECURITY_CLASSIFICATION ( #201, ( #181 ) ) ;
#60 = DIRECTION ( 'NONE',  ( -3.491481338843133355E-15, 1.224646799147353207E-16, -1.000000000000000000 ) ) ;
#61 = APPROVAL ( #131, 'UNSPECIFIED' ) ;
#62 = CARTESIAN_POINT ( 'NONE',  ( 1.745740669421566425E-13, -6.123233995736765296E-15, 49.99999999999999289 ) ) ;
#63 = FACE_OUTER_BOUND ( 'NONE', #188, .T. ) ;
#64 = LOCAL_TIME ( 16, 41, 56.00000000000000000, #198 ) ;
#65 = CYLINDRICAL_SURFACE ( 'NONE', #68, 2.999999999999997335 ) ;
#66 = PERSON_AND_ORGANIZATION_ROLE ( 'design_owner' ) ;
#67 = CALENDAR_DATE ( 2021, 15, 11 ) ;
#68 = AXIS2_PLACEMENT_3D ( 'NONE', #109, #107, #24 ) ;
#69 = EDGE_CURVE ( 'NONE', #92, #92, #133, .T. ) ;
#70 = PERSON_AND_ORGANIZATION_ROLE ( 'classification_officer' ) ;
#71 = ORIENTED_EDGE ( 'NONE', *, *, #69, .T. ) ;
#72 = PERSON ( 'UNSPECIFIED', 'UNSPECIFIED', 'UNSPECIFIED', ('UNSPECIFIED'), ('UNSPECIFIED'), ('UNSPECIFIED') ) ;
#73 = ORIENTED_EDGE ( 'NONE', *, *, #166, .F. ) ;
#74 = CIRCLE ( 'NONE', #119, 3.000000000000000444 ) ;
#75 = VERTEX_POINT ( 'NONE', #44 ) ;
#76 = ADVANCED_FACE ( 'NONE', ( #193 ), #126, .T. ) ;
#77 = FACE_BOUND ( 'NONE', #189, .T. ) ;
#78 = DIRECTION ( 'NONE',  ( -3.491481338843133355E-15, 1.224646799147353207E-16, -1.000000000000000000 ) ) ;
#79 = DIRECTION ( 'NONE',  ( 0.0000000000000000000, 1.000000000000000000, 0.0000000000000000000 ) ) ;
#80 = APPROVAL_PERSON_ORGANIZATION ( #101, #148, #86 ) ;
#81 = FACE_OUTER_BOUND ( 'NONE', #122, .T. ) ;
#82 = CALENDAR_DATE ( 2021, 15, 11 ) ;
#83 = AXIS2_PLACEMENT_3D ( 'NONE', #161, #163, #124 ) ;
#84 = COORDINATED_UNIVERSAL_TIME_OFFSET ( 1, 0, .AHEAD. ) ;
#85 = ORIENTED_EDGE ( 'NONE', *, *, #38, .F. ) ;
#86 = APPROVAL_ROLE ( '' ) ;
#87 = FACE_OUTER_BOUND ( 'NONE', #104, .T. ) ;
#88 = APPROVAL_PERSON_ORGANIZATION ( #199, #141, #137 ) ;
#89 = CARTESIAN_POINT ( 'NONE',  ( 1.745740669421566425E-13, 2.499999999999995115, 49.99999999999999289 ) ) ;
#90 = CYLINDRICAL_SURFACE ( 'NONE', #20, 3.000000000000000000 ) ;
#91 = DIRECTION ( 'NONE',  ( -3.491481338843133355E-15, 1.224646799147353207E-16, -1.000000000000000000 ) ) ;
#92 = VERTEX_POINT ( 'NONE', #89 ) ;
#93 = AXIS2_PLACEMENT_3D ( 'NONE', #130, #129, #2 ) ;
#94 = CALENDAR_DATE ( 2021, 15, 11 ) ;
#95 = CALENDAR_DATE ( 2021, 15, 11 ) ;
#96 = CC_DESIGN_DATE_AND_TIME_ASSIGNMENT ( #11, #27, ( #151 ) ) ;
#97 = AXIS2_PLACEMENT_3D ( 'NONE', #49, #91, #79 ) ;
#98 = PERSON_AND_ORGANIZATION ( #72, #170 ) ;
#99 = CONICAL_SURFACE ( 'NONE', #93, 2.999999999999994671, 0.7853981633974482790 ) ;
#100 = LOCAL_TIME ( 16, 41, 56.00000000000000000, #155 ) ;
#101 = PERSON_AND_ORGANIZATION ( #72, #170 ) ;
#102 = EDGE_LOOP ( 'NONE', ( #15 ) ) ;
#103 = PERSON_AND_ORGANIZATION ( #72, #170 ) ;
#104 = EDGE_LOOP ( 'NONE', ( #187 ) ) ;
#105 = VERTEX_POINT ( 'NONE', #173 ) ;
#106 = DIRECTION ( 'NONE',  ( 4.275831445896958607E-31, 1.000000000000000000, 1.224646799147353207E-16 ) ) ;
#107 = DIRECTION ( 'NONE',  ( -3.491481338843133355E-15, 1.224646799147353207E-16, -1.000000000000000000 ) ) ;
#108 = CC_DESIGN_PERSON_AND_ORGANIZATION_ASSIGNMENT ( #103, #52, ( #151 ) ) ;
#109 = CARTESIAN_POINT ( 'NONE',  ( 0.0000000000000000000, 0.0000000000000000000, 0.0000000000000000000 ) ) ;
#110 = VERTEX_POINT ( 'NONE', #179 ) ;
#111 = SECURITY_CLASSIFICATION_LEVEL ( 'unclassified' ) ;
#112 = CIRCLE ( 'NONE', #97, 3.000000000000000444 ) ;
#113 =( NAMED_UNIT ( * ) SI_UNIT ( $, .STERADIAN. ) SOLID_ANGLE_UNIT ( ) );
#114 = AXIS2_PLACEMENT_3D ( 'NONE', #34, #176, #106 ) ;
#115 =( GEOMETRIC_REPRESENTATION_CONTEXT ( 3 ) GLOBAL_UNCERTAINTY_ASSIGNED_CONTEXT ( ( #56 ) ) GLOBAL_UNIT_ASSIGNED_CONTEXT ( ( #51, #14, #113 ) ) REPRESENTATION_CONTEXT ( 'NONE', 'WORKASPACE' ) );
#116 = CC_DESIGN_DATE_AND_TIME_ASSIGNMENT ( #185, #37, ( #201 ) ) ;
#117 = APPROVAL_DATE_TIME ( #149, #148 ) ;
#118 = MECHANICAL_CONTEXT ( 'NONE', #123, 'mechanical' ) ;
#119 = AXIS2_PLACEMENT_3D ( 'NONE', #48, #158, #58 ) ;
#120 = APPROVAL_PERSON_ORGANIZATION ( #152, #61, #195 ) ;
#121 = APPLICATION_PROTOCOL_DEFINITION ( 'international standard', 'config_control_design', 1994, #135 ) ;
#122 = EDGE_LOOP ( 'NONE', ( #43 ) ) ;
#123 = APPLICATION_CONTEXT ( 'configuration controlled 3d designs of mechanical parts and assemblies' ) ;
#124 = DIRECTION ( 'NONE',  ( 4.275831445896958607E-31, 1.000000000000000000, 1.224646799147353207E-16 ) ) ;
#125 = PRODUCT ( '57123', '57123', '', ( #118 ) ) ;
#126 = PLANE ( 'NONE',  #47 ) ;
#127 = CARTESIAN_POINT ( 'NONE',  ( 5.586370142149013368E-14, 2.249639673992783401E-32, 16.00000000000000000 ) ) ;
#128 = CIRCLE ( 'NONE', #156, 3.000000000000000000 ) ;
#129 = DIRECTION ( 'NONE',  ( -3.491481338843133355E-15, 1.224646799147353207E-16, -1.000000000000000000 ) ) ;
#130 = CARTESIAN_POINT ( 'NONE',  ( 1.728283262727351074E-13, -6.062001655779398511E-15, 49.50000000000000000 ) ) ;
#131 = APPROVAL_STATUS ( 'not_yet_approved' ) ;
#132 = SHAPE_DEFINITION_REPRESENTATION ( #186, #182 ) ;
#133 = CIRCLE ( 'NONE', #159, 2.500000000000001332 ) ;
#134 = CC_DESIGN_APPROVAL ( #61, ( #181 ) ) ;
#135 = APPLICATION_CONTEXT ( 'configuration controlled 3d designs of mechanical parts and assemblies' ) ;
#136 = CC_DESIGN_PERSON_AND_ORGANIZATION_ASSIGNMENT ( #98, #28, ( #181 ) ) ;
#137 = APPROVAL_ROLE ( '' ) ;
#138 = CALENDAR_DATE ( 2021, 15, 11 ) ;
#139 = EDGE_LOOP ( 'NONE', ( #168 ) ) ;
#140 = DIRECTION ( 'NONE',  ( 0.0000000000000000000, 0.0000000000000000000, 1.000000000000000000 ) ) ;
#141 = APPROVAL ( #165, 'UNSPECIFIED' ) ;
#142 = AXIS2_PLACEMENT_3D ( 'NONE', #29, #140, #53 ) ;
#143 = CARTESIAN_POINT ( 'NONE',  ( 0.0000000000000000000, 3.000000000000000000, 0.0000000000000000000 ) ) ;
#144 = CARTESIAN_POINT ( 'NONE',  ( 0.0000000000000000000, 0.0000000000000000000, 0.0000000000000000000 ) ) ;
#145 = DIRECTION ( 'NONE',  ( 0.0000000000000000000, 1.000000000000000000, 0.0000000000000000000 ) ) ;
#146 = CARTESIAN_POINT ( 'NONE',  ( -1.282749433769087757E-30, 4.499279347985572824E-32, -3.673940397442059868E-16 ) ) ;
#147 = ADVANCED_FACE ( 'NONE', ( #202 ), #192, .T. ) ;
#148 = APPROVAL ( #167, 'UNSPECIFIED' ) ;
#149 = DATE_AND_TIME ( #82, #100 ) ;
#150 = LOCAL_TIME ( 16, 41, 56.00000000000000000, #25 ) ;
#151 = PRODUCT_DEFINITION ( 'UNKNOWN', '', #181, #57 ) ;
#152 = PERSON_AND_ORGANIZATION ( #72, #170 ) ;
#153 = PERSON_AND_ORGANIZATION ( #72, #170 ) ;
#154 = EDGE_LOOP ( 'NONE', ( #85 ) ) ;
#155 = COORDINATED_UNIVERSAL_TIME_OFFSET ( 1, 0, .AHEAD. ) ;
#156 = AXIS2_PLACEMENT_3D ( 'NONE', #146, #6, #19 ) ;
#157 = CC_DESIGN_APPROVAL ( #141, ( #151 ) ) ;
#158 = DIRECTION ( 'NONE',  ( -3.491481338843133355E-15, 1.224646799147353207E-16, -1.000000000000000000 ) ) ;
#159 = AXIS2_PLACEMENT_3D ( 'NONE', #62, #60, #160 ) ;
#160 = DIRECTION ( 'NONE',  ( 0.0000000000000000000, 1.000000000000000000, 0.0000000000000000000 ) ) ;
#161 = CARTESIAN_POINT ( 'NONE',  ( -6.413747168845438786E-31, 2.249639673992786412E-32, -1.836970198721029934E-16 ) ) ;
#162 = DIRECTION ( 'NONE',  ( 3.491481338843133355E-15, -1.224646799147353207E-16, 1.000000000000000000 ) ) ;
#163 = DIRECTION ( 'NONE',  ( -3.491481338843133355E-15, 1.224646799147353207E-16, -1.000000000000000000 ) ) ;
#164 = AXIS2_PLACEMENT_3D ( 'NONE', #35, #162, #190 ) ;
#165 = APPROVAL_STATUS ( 'not_yet_approved' ) ;
#166 = EDGE_CURVE ( 'NONE', #75, #75, #55, .T. ) ;
#167 = APPROVAL_STATUS ( 'not_yet_approved' ) ;
#168 = ORIENTED_EDGE ( 'NONE', *, *, #197, .T. ) ;
#169 = MANIFOLD_SOLID_BREP ( 'Corps-Déplacer/Copier1[2]', #4 ) ;
#170 = ORGANIZATION ( 'UNSPECIFIED', 'UNSPECIFIED', '' ) ;
#171 = CC_DESIGN_PERSON_AND_ORGANIZATION_ASSIGNMENT ( #39, #10, ( #181 ) ) ;
#172 = EDGE_LOOP ( 'NONE', ( #30 ) ) ;
#173 = CARTESIAN_POINT ( 'NONE',  ( 5.586370142149013368E-14, 2.999999999999998224, 16.00000000000000000 ) ) ;
#174 = DIRECTION ( 'NONE',  ( 4.275831445896959482E-31, 1.000000000000000000, 1.224646799147353207E-16 ) ) ;
#175 = CC_DESIGN_PERSON_AND_ORGANIZATION_ASSIGNMENT ( #7, #66, ( #125 ) ) ;
#176 = DIRECTION ( 'NONE',  ( -3.491481338843133355E-15, 1.224646799147353207E-16, -1.000000000000000000 ) ) ;
#177 = MANIFOLD_SOLID_BREP ( 'Corps-Déplacer/Copier1[1]', #31 ) ;
#178 = PLANE ( 'NONE',  #164 ) ;
#179 = CARTESIAN_POINT ( 'NONE',  ( 5.586370142149013368E-14, 2.999999999999998224, 16.00000000000000000 ) ) ;
#180 = COORDINATED_UNIVERSAL_TIME_OFFSET ( 1, 0, .AHEAD. ) ;
#181 = PRODUCT_DEFINITION_FORMATION_WITH_SPECIFIED_SOURCE ( 'ANY', '', #125, .NOT_KNOWN. ) ;
#182 = ADVANCED_BREP_SHAPE_REPRESENTATION ( '57123', ( #177, #169, #142 ), #115 ) ;
#183 = DATE_AND_TIME ( #94, #64 ) ;
#184 = ADVANCED_FACE ( 'NONE', ( #194 ), #178, .F. ) ;
#185 = DATE_AND_TIME ( #138, #150 ) ;
#186 = PRODUCT_DEFINITION_SHAPE ( 'NONE', 'NONE',  #151 ) ;
#187 = ORIENTED_EDGE ( 'NONE', *, *, #69, .F. ) ;
#188 = EDGE_LOOP ( 'NONE', ( #73 ) ) ;
#189 = EDGE_LOOP ( 'NONE', ( #71 ) ) ;
#190 = DIRECTION ( 'NONE',  ( -4.275831445896958607E-31, -1.000000000000000000, -1.224646799147353207E-16 ) ) ;
#191 = FACE_OUTER_BOUND ( 'NONE', #102, .T. ) ;
#192 = PLANE ( 'NONE',  #83 ) ;
#193 = FACE_OUTER_BOUND ( 'NONE', #154, .T. ) ;
#194 = FACE_OUTER_BOUND ( 'NONE', #139, .T. ) ;
#195 = APPROVAL_ROLE ( '' ) ;
#196 = LOCAL_TIME ( 16, 41, 56.00000000000000000, #84 ) ;
#197 = EDGE_CURVE ( 'NONE', #105, #105, #112, .T. ) ;
#198 = COORDINATED_UNIVERSAL_TIME_OFFSET ( 1, 0, .AHEAD. ) ;
#199 = PERSON_AND_ORGANIZATION ( #72, #170 ) ;
#200 = AXIS2_PLACEMENT_3D ( 'NONE', #23, #78, #145 ) ;
#201 = SECURITY_CLASSIFICATION ( '', '', #111 ) ;
#202 = FACE_OUTER_BOUND ( 'NONE', #17, .T. ) ;
#203 = EDGE_CURVE ( 'NONE', #32, #32, #128, .T. ) ;
ENDSEC;
END-ISO-10303-21;
