ISO-10303-21;
HEADER;
FILE_DESCRIPTION (( 'STEP AP203' ),
    '1' );
FILE_NAME ('57122.step',
    '2021-11-15T15:41:56',
    ( '' ),
    ( '' ),
    'SwSTEP 2.0',
    'SolidWorks 2019',
    '' );
FILE_SCHEMA (( 'CONFIG_CONTROL_DESIGN' ));
ENDSEC;

DATA;
#1 = PERSON_AND_ORGANIZATION ( #23, #54 ) ;
#2 = ORIENTED_EDGE ( 'NONE', *, *, #51, .T. ) ;
#3 = PERSON_AND_ORGANIZATION_ROLE ( 'classification_officer' ) ;
#4 = DATE_AND_TIME ( #71, #11 ) ;
#5 = CLOSED_SHELL ( 'NONE', ( #146, #192, #115 ) ) ;
#6 = CC_DESIGN_APPROVAL ( #101, ( #113 ) ) ;
#7 = APPROVAL_PERSON_ORGANIZATION ( #35, #180, #176 ) ;
#8 = CC_DESIGN_PERSON_AND_ORGANIZATION_ASSIGNMENT ( #13, #98, ( #165 ) ) ;
#9 = ORIENTED_EDGE ( 'NONE', *, *, #69, .T. ) ;
#10 = PLANE ( 'NONE',  #70 ) ;
#11 = LOCAL_TIME ( 16, 41, 56.00000000000000000, #162 ) ;
#12 = ORIENTED_EDGE ( 'NONE', *, *, #75, .F. ) ;
#13 = PERSON_AND_ORGANIZATION ( #23, #54 ) ;
#14 = UNCERTAINTY_MEASURE_WITH_UNIT (LENGTH_MEASURE( 1.000000000000000082E-05 ), #121, 'distance_accuracy_value', 'NONE');
#15 = VERTEX_POINT ( 'NONE', #43 ) ;
#16 = EDGE_CURVE ( 'NONE', #120, #120, #144, .T. ) ;
#17 = EDGE_LOOP ( 'NONE', ( #157 ) ) ;
#18 = DATE_TIME_ROLE ( 'classification_date' ) ;
#19 = AXIS2_PLACEMENT_3D ( 'NONE', #200, #199, #63 ) ;
#20 = CALENDAR_DATE ( 2021, 15, 11 ) ;
#21 = MANIFOLD_SOLID_BREP ( 'Corps-Déplacer/Copier1[2]', #5 ) ;
#22 = LOCAL_TIME ( 16, 41, 56.00000000000000000, #53 ) ;
#23 = PERSON ( 'UNSPECIFIED', 'UNSPECIFIED', 'UNSPECIFIED', ('UNSPECIFIED'), ('UNSPECIFIED'), ('UNSPECIFIED') ) ;
#24 = MANIFOLD_SOLID_BREP ( 'Corps-Déplacer/Copier1[1]', #73 ) ;
#25 = COORDINATED_UNIVERSAL_TIME_OFFSET ( 1, 0, .AHEAD. ) ;
#26 = EDGE_CURVE ( 'NONE', #198, #198, #166, .T. ) ;
#27 = PERSON_AND_ORGANIZATION ( #23, #54 ) ;
#28 = FACE_OUTER_BOUND ( 'NONE', #29, .T. ) ;
#29 = EDGE_LOOP ( 'NONE', ( #139 ) ) ;
#30 = PERSON_AND_ORGANIZATION_ROLE ( 'design_owner' ) ;
#31 = CIRCLE ( 'NONE', #19, 2.500000000000000000 ) ;
#32 = VERTEX_POINT ( 'NONE', #137 ) ;
#33 = ORIENTED_EDGE ( 'NONE', *, *, #26, .T. ) ;
#34 = ORIENTED_EDGE ( 'NONE', *, *, #26, .F. ) ;
#35 = PERSON_AND_ORGANIZATION ( #23, #54 ) ;
#36 = PERSON_AND_ORGANIZATION ( #23, #54 ) ;
#37 = COORDINATED_UNIVERSAL_TIME_OFFSET ( 1, 0, .AHEAD. ) ;
#38 = LOCAL_TIME ( 16, 41, 56.00000000000000000, #37 ) ;
#39 = ADVANCED_FACE ( 'NONE', ( #60 ), #42, .F. ) ;
#40 = FACE_OUTER_BOUND ( 'NONE', #78, .T. ) ;
#41 = CARTESIAN_POINT ( 'NONE',  ( 1.728283262727351074E-13, 2.499999999999988454, 49.50000000000000000 ) ) ;
#42 = PLANE ( 'NONE',  #103 ) ;
#43 = CARTESIAN_POINT ( 'NONE',  ( 0.0000000000000000000, 2.500000000000000000, 0.0000000000000000000 ) ) ;
#44 = ORIENTED_EDGE ( 'NONE', *, *, #69, .F. ) ;
#45 = DESIGN_CONTEXT ( 'detailed design', #197, 'design' ) ;
#46 = AXIS2_PLACEMENT_3D ( 'NONE', #107, #149, #196 ) ;
#47 = DIRECTION ( 'NONE',  ( -3.491481338843133355E-15, 1.224646799147353207E-16, -1.000000000000000000 ) ) ;
#48 = EDGE_LOOP ( 'NONE', ( #44 ) ) ;
#49 = SHAPE_DEFINITION_REPRESENTATION ( #175, #173 ) ;
#50 = DIRECTION ( 'NONE',  ( 4.275831445896958607E-31, 1.000000000000000000, 1.224646799147353207E-16 ) ) ;
#51 = EDGE_CURVE ( 'NONE', #32, #32, #31, .T. ) ;
#52 = DIRECTION ( 'NONE',  ( -3.491481338843133355E-15, 1.224646799147353207E-16, -1.000000000000000000 ) ) ;
#53 = COORDINATED_UNIVERSAL_TIME_OFFSET ( 1, 0, .AHEAD. ) ;
#54 = ORGANIZATION ( 'UNSPECIFIED', 'UNSPECIFIED', '' ) ;
#55 = DATE_AND_TIME ( #99, #65 ) ;
#56 = DIRECTION ( 'NONE',  ( 0.0000000000000000000, 0.0000000000000000000, 1.000000000000000000 ) ) ;
#57 = CYLINDRICAL_SURFACE ( 'NONE', #117, 2.499999999999996891 ) ;
#58 = CIRCLE ( 'NONE', #194, 2.500000000000000000 ) ;
#59 = CARTESIAN_POINT ( 'NONE',  ( 1.745740669421566425E-13, 1.999999999999991340, 49.99999999999999289 ) ) ;
#60 = FACE_OUTER_BOUND ( 'NONE', #48, .T. ) ;
#61 = EDGE_LOOP ( 'NONE', ( #2 ) ) ;
#62 = DIRECTION ( 'NONE',  ( 1.000000000000000000, 0.0000000000000000000, 0.0000000000000000000 ) ) ;
#63 = DIRECTION ( 'NONE',  ( 0.0000000000000000000, 1.000000000000000000, 0.0000000000000000000 ) ) ;
#64 = AXIS2_PLACEMENT_3D ( 'NONE', #187, #155, #83 ) ;
#65 = LOCAL_TIME ( 16, 41, 56.00000000000000000, #25 ) ;
#66 = ORIENTED_EDGE ( 'NONE', *, *, #75, .T. ) ;
#67 = PERSON_AND_ORGANIZATION_ROLE ( 'design_supplier' ) ;
#68 = FACE_OUTER_BOUND ( 'NONE', #151, .T. ) ;
#69 = EDGE_CURVE ( 'NONE', #150, #150, #158, .T. ) ;
#70 = AXIS2_PLACEMENT_3D ( 'NONE', #108, #182, #148 ) ;
#71 = CALENDAR_DATE ( 2021, 15, 11 ) ;
#72 = APPLICATION_CONTEXT ( 'configuration controlled 3d designs of mechanical parts and assemblies' ) ;
#73 = CLOSED_SHELL ( 'NONE', ( #181, #177, #143, #39 ) ) ;
#74 = APPROVAL_PERSON_ORGANIZATION ( #27, #84, #76 ) ;
#75 = EDGE_CURVE ( 'NONE', #15, #15, #58, .T. ) ;
#76 = APPROVAL_ROLE ( '' ) ;
#77 = CARTESIAN_POINT ( 'NONE',  ( 0.0000000000000000000, 0.0000000000000000000, 0.0000000000000000000 ) ) ;
#78 = EDGE_LOOP ( 'NONE', ( #34 ) ) ;
#79 = CARTESIAN_POINT ( 'NONE',  ( 0.0000000000000000000, 0.0000000000000000000, 0.0000000000000000000 ) ) ;
#80 = EDGE_LOOP ( 'NONE', ( #12 ) ) ;
#81 = CC_DESIGN_DATE_AND_TIME_ASSIGNMENT ( #4, #18, ( #195 ) ) ;
#82 = CARTESIAN_POINT ( 'NONE',  ( 4.888073874380386697E-14, 2.499999999999998224, 14.00000000000000000 ) ) ;
#83 = DIRECTION ( 'NONE',  ( -4.275831445896958607E-31, -1.000000000000000000, -1.224646799147353207E-16 ) ) ;
#84 = APPROVAL ( #87, 'UNSPECIFIED' ) ;
#85 = APPROVAL_DATE_TIME ( #97, #180 ) ;
#86 = APPROVAL_PERSON_ORGANIZATION ( #36, #101, #114 ) ;
#87 = APPROVAL_STATUS ( 'not_yet_approved' ) ;
#88 =( NAMED_UNIT ( * ) SI_UNIT ( $, .STERADIAN. ) SOLID_ANGLE_UNIT ( ) );
#89 = DIRECTION ( 'NONE',  ( 0.0000000000000000000, 1.000000000000000000, 0.0000000000000000000 ) ) ;
#90 = CYLINDRICAL_SURFACE ( 'NONE', #159, 2.500000000000000000 ) ;
#91 = EDGE_LOOP ( 'NONE', ( #9 ) ) ;
#92 = PERSON_AND_ORGANIZATION ( #23, #54 ) ;
#93 = PLANE ( 'NONE',  #64 ) ;
#94 = CARTESIAN_POINT ( 'NONE',  ( 1.745740669421566678E-13, 1.499759782661846660E-32, 50.00000000000000000 ) ) ;
#95 = APPROVAL_STATUS ( 'not_yet_approved' ) ;
#96 = DIRECTION ( 'NONE',  ( -3.491481338843133355E-15, 1.224646799147353207E-16, -1.000000000000000000 ) ) ;
#97 = DATE_AND_TIME ( #20, #22 ) ;
#98 = PERSON_AND_ORGANIZATION_ROLE ( 'creator' ) ;
#99 = CALENDAR_DATE ( 2021, 15, 11 ) ;
#100 = AXIS2_PLACEMENT_3D ( 'NONE', #124, #201, #185 ) ;
#101 = APPROVAL ( #95, 'UNSPECIFIED' ) ;
#102 = DIRECTION ( 'NONE',  ( -3.491481338843133355E-15, 1.224646799147353207E-16, -1.000000000000000000 ) ) ;
#103 = AXIS2_PLACEMENT_3D ( 'NONE', #94, #96, #122 ) ;
#104 = PRODUCT ( '57122', '57122', '', ( #172 ) ) ;
#105 = PRODUCT_RELATED_PRODUCT_CATEGORY ( 'detail', '', ( #104 ) ) ;
#106 = DIRECTION ( 'NONE',  ( 4.275831445896958607E-31, 1.000000000000000000, 1.224646799147353207E-16 ) ) ;
#107 = CARTESIAN_POINT ( 'NONE',  ( 4.888073874380386697E-14, -1.714505518806294638E-15, 14.00000000000000000 ) ) ;
#108 = CARTESIAN_POINT ( 'NONE',  ( 4.888073874380386697E-14, 1.874699728327319273E-32, 14.00000000000000000 ) ) ;
#109 = ORIENTED_EDGE ( 'NONE', *, *, #51, .F. ) ;
#110 = CC_DESIGN_PERSON_AND_ORGANIZATION_ASSIGNMENT ( #111, #3, ( #195 ) ) ;
#111 = PERSON_AND_ORGANIZATION ( #23, #54 ) ;
#112 = CARTESIAN_POINT ( 'NONE',  ( -5.344789307371197820E-31, 1.874699728327322010E-32, -1.530808498934191571E-16 ) ) ;
#113 = PRODUCT_DEFINITION_FORMATION_WITH_SPECIFIED_SOURCE ( 'ANY', '', #104, .NOT_KNOWN. ) ;
#114 = APPROVAL_ROLE ( '' ) ;
#115 = ADVANCED_FACE ( 'NONE', ( #174 ), #93, .T. ) ;
#116 = PERSON_AND_ORGANIZATION ( #23, #54 ) ;
#117 = AXIS2_PLACEMENT_3D ( 'NONE', #77, #119, #169 ) ;
#118 = AXIS2_PLACEMENT_3D ( 'NONE', #112, #47, #184 ) ;
#119 = DIRECTION ( 'NONE',  ( -3.491481338843133355E-15, 1.224646799147353207E-16, -1.000000000000000000 ) ) ;
#120 = VERTEX_POINT ( 'NONE', #41 ) ;
#121 =( LENGTH_UNIT ( ) NAMED_UNIT ( * ) SI_UNIT ( .MILLI., .METRE. ) );
#122 = DIRECTION ( 'NONE',  ( 4.275831445896958607E-31, 1.000000000000000000, 1.224646799147353207E-16 ) ) ;
#123 = APPLICATION_PROTOCOL_DEFINITION ( 'international standard', 'config_control_design', 1994, #72 ) ;
#124 = CARTESIAN_POINT ( 'NONE',  ( 1.745740669421566425E-13, -6.123233995736765296E-15, 49.99999999999999289 ) ) ;
#125 = APPLICATION_PROTOCOL_DEFINITION ( 'international standard', 'config_control_design', 1994, #197 ) ;
#126 = CARTESIAN_POINT ( 'NONE',  ( -1.068957861474239564E-30, 3.749399456654644020E-32, -3.061616997868383141E-16 ) ) ;
#127 = FACE_BOUND ( 'NONE', #91, .T. ) ;
#128 = CARTESIAN_POINT ( 'NONE',  ( 1.728283262727351074E-13, -6.062001655779398511E-15, 49.50000000000000000 ) ) ;
#129 = CONICAL_SURFACE ( 'NONE', #152, 2.499999999999994227, 0.7853981633974518317 ) ;
#130 = PERSON_AND_ORGANIZATION_ROLE ( 'creator' ) ;
#131 = CC_DESIGN_PERSON_AND_ORGANIZATION_ASSIGNMENT ( #1, #67, ( #113 ) ) ;
#132 = COORDINATED_UNIVERSAL_TIME_OFFSET ( 1, 0, .AHEAD. ) ;
#133 = CC_DESIGN_DATE_AND_TIME_ASSIGNMENT ( #55, #141, ( #165 ) ) ;
#134 = CARTESIAN_POINT ( 'NONE',  ( 0.0000000000000000000, 0.0000000000000000000, 0.0000000000000000000 ) ) ;
#135 = FACE_OUTER_BOUND ( 'NONE', #80, .T. ) ;
#136 = CARTESIAN_POINT ( 'NONE',  ( 1.728283262727351074E-13, -6.062001655779398511E-15, 49.50000000000000000 ) ) ;
#137 = CARTESIAN_POINT ( 'NONE',  ( 4.888073874380386697E-14, 2.499999999999998224, 14.00000000000000000 ) ) ;
#138 = DIRECTION ( 'NONE',  ( -3.491481338843133355E-15, 1.224646799147353207E-16, -1.000000000000000000 ) ) ;
#139 = ORIENTED_EDGE ( 'NONE', *, *, #16, .T. ) ;
#140 = LOCAL_TIME ( 16, 41, 56.00000000000000000, #132 ) ;
#141 = DATE_TIME_ROLE ( 'creation_date' ) ;
#142 = EDGE_LOOP ( 'NONE', ( #109 ) ) ;
#143 = ADVANCED_FACE ( 'NONE', ( #127, #188 ), #129, .T. ) ;
#144 = CIRCLE ( 'NONE', #163, 2.499999999999994227 ) ;
#145 = CC_DESIGN_APPROVAL ( #84, ( #165 ) ) ;
#146 = ADVANCED_FACE ( 'NONE', ( #68 ), #189, .T. ) ;
#147 =( GEOMETRIC_REPRESENTATION_CONTEXT ( 3 ) GLOBAL_UNCERTAINTY_ASSIGNED_CONTEXT ( ( #14 ) ) GLOBAL_UNIT_ASSIGNED_CONTEXT ( ( #121, #183, #88 ) ) REPRESENTATION_CONTEXT ( 'NONE', 'WORKASPACE' ) );
#148 = DIRECTION ( 'NONE',  ( -4.275831445896958607E-31, -1.000000000000000000, -1.224646799147353207E-16 ) ) ;
#149 = DIRECTION ( 'NONE',  ( -3.491481338843133355E-15, 1.224646799147353207E-16, -1.000000000000000000 ) ) ;
#150 = VERTEX_POINT ( 'NONE', #59 ) ;
#151 = EDGE_LOOP ( 'NONE', ( #66 ) ) ;
#152 = AXIS2_PLACEMENT_3D ( 'NONE', #128, #52, #178 ) ;
#153 = APPROVAL_DATE_TIME ( #193, #84 ) ;
#154 = FACE_OUTER_BOUND ( 'NONE', #168, .T. ) ;
#155 = DIRECTION ( 'NONE',  ( 3.491481338843133355E-15, -1.224646799147353207E-16, 1.000000000000000000 ) ) ;
#156 = CALENDAR_DATE ( 2021, 15, 11 ) ;
#157 = ORIENTED_EDGE ( 'NONE', *, *, #16, .F. ) ;
#158 = CIRCLE ( 'NONE', #100, 1.999999999999997335 ) ;
#159 = AXIS2_PLACEMENT_3D ( 'NONE', #79, #102, #106 ) ;
#160 = DATE_AND_TIME ( #156, #38 ) ;
#161 = APPROVAL_DATE_TIME ( #160, #101 ) ;
#162 = COORDINATED_UNIVERSAL_TIME_OFFSET ( 1, 0, .AHEAD. ) ;
#163 = AXIS2_PLACEMENT_3D ( 'NONE', #136, #138, #89 ) ;
#164 = CC_DESIGN_APPROVAL ( #180, ( #195 ) ) ;
#165 = PRODUCT_DEFINITION ( 'UNKNOWN', '', #113, #45 ) ;
#166 = CIRCLE ( 'NONE', #46, 2.500000000000000000 ) ;
#167 = FACE_OUTER_BOUND ( 'NONE', #61, .T. ) ;
#168 = EDGE_LOOP ( 'NONE', ( #33 ) ) ;
#169 = DIRECTION ( 'NONE',  ( 4.275831445896959482E-31, 1.000000000000000000, 1.224646799147353207E-16 ) ) ;
#170 = DIRECTION ( 'NONE',  ( -3.491481338843133355E-15, 1.224646799147353207E-16, -1.000000000000000000 ) ) ;
#171 = CC_DESIGN_PERSON_AND_ORGANIZATION_ASSIGNMENT ( #116, #130, ( #113 ) ) ;
#172 = MECHANICAL_CONTEXT ( 'NONE', #72, 'mechanical' ) ;
#173 = ADVANCED_BREP_SHAPE_REPRESENTATION ( '57122', ( #24, #21, #179 ), #147 ) ;
#174 = FACE_OUTER_BOUND ( 'NONE', #142, .T. ) ;
#175 = PRODUCT_DEFINITION_SHAPE ( 'NONE', 'NONE',  #165 ) ;
#176 = APPROVAL_ROLE ( '' ) ;
#177 = ADVANCED_FACE ( 'NONE', ( #28, #40 ), #57, .T. ) ;
#178 = DIRECTION ( 'NONE',  ( 0.0000000000000000000, 1.000000000000000000, 0.0000000000000000000 ) ) ;
#179 = AXIS2_PLACEMENT_3D ( 'NONE', #134, #56, #62 ) ;
#180 = APPROVAL ( #190, 'UNSPECIFIED' ) ;
#181 = ADVANCED_FACE ( 'NONE', ( #154 ), #10, .F. ) ;
#182 = DIRECTION ( 'NONE',  ( 3.491481338843133355E-15, -1.224646799147353207E-16, 1.000000000000000000 ) ) ;
#183 =( NAMED_UNIT ( * ) PLANE_ANGLE_UNIT ( ) SI_UNIT ( $, .RADIAN. ) );
#184 = DIRECTION ( 'NONE',  ( 4.275831445896958607E-31, 1.000000000000000000, 1.224646799147353207E-16 ) ) ;
#185 = DIRECTION ( 'NONE',  ( 0.0000000000000000000, 1.000000000000000000, 0.0000000000000000000 ) ) ;
#186 = CALENDAR_DATE ( 2021, 15, 11 ) ;
#187 = CARTESIAN_POINT ( 'NONE',  ( 4.888073874380386697E-14, 1.874699728327319273E-32, 14.00000000000000000 ) ) ;
#188 = FACE_OUTER_BOUND ( 'NONE', #17, .T. ) ;
#189 = PLANE ( 'NONE',  #118 ) ;
#190 = APPROVAL_STATUS ( 'not_yet_approved' ) ;
#191 = SECURITY_CLASSIFICATION_LEVEL ( 'unclassified' ) ;
#192 = ADVANCED_FACE ( 'NONE', ( #167, #135 ), #90, .T. ) ;
#193 = DATE_AND_TIME ( #186, #140 ) ;
#194 = AXIS2_PLACEMENT_3D ( 'NONE', #126, #170, #50 ) ;
#195 = SECURITY_CLASSIFICATION ( '', '', #191 ) ;
#196 = DIRECTION ( 'NONE',  ( 0.0000000000000000000, 1.000000000000000000, 0.0000000000000000000 ) ) ;
#197 = APPLICATION_CONTEXT ( 'configuration controlled 3d designs of mechanical parts and assemblies' ) ;
#198 = VERTEX_POINT ( 'NONE', #82 ) ;
#199 = DIRECTION ( 'NONE',  ( -3.491481338843133355E-15, 1.224646799147353207E-16, -1.000000000000000000 ) ) ;
#200 = CARTESIAN_POINT ( 'NONE',  ( 4.888073874380386697E-14, -1.714505518806294638E-15, 14.00000000000000000 ) ) ;
#201 = DIRECTION ( 'NONE',  ( -3.491481338843133355E-15, 1.224646799147353207E-16, -1.000000000000000000 ) ) ;
#202 = CC_DESIGN_SECURITY_CLASSIFICATION ( #195, ( #113 ) ) ;
#203 = CC_DESIGN_PERSON_AND_ORGANIZATION_ASSIGNMENT ( #92, #30, ( #104 ) ) ;
ENDSEC;
END-ISO-10303-21;
