ISO-10303-21;
HEADER;
FILE_DESCRIPTION (( 'STEP AP203' ),
    '1' );
FILE_NAME ('57121.step',
    '2021-11-15T15:41:55',
    ( '' ),
    ( '' ),
    'SwSTEP 2.0',
    'SolidWorks 2019',
    '' );
FILE_SCHEMA (( 'CONFIG_CONTROL_DESIGN' ));
ENDSEC;

DATA;
#1 = DATE_AND_TIME ( #128, #166 ) ;
#2 = CLOSED_SHELL ( 'NONE', ( #177, #10, #145 ) ) ;
#3 = DIRECTION ( 'NONE',  ( 4.275831445896958607E-31, 1.000000000000000000, 1.224646799147353207E-16 ) ) ;
#4 = EDGE_CURVE ( 'NONE', #133, #133, #94, .T. ) ;
#5 = DIRECTION ( 'NONE',  ( -3.491481338843133355E-15, 1.224646799147353207E-16, -1.000000000000000000 ) ) ;
#6 = DIRECTION ( 'NONE',  ( -3.491481338843133355E-15, 1.224646799147353207E-16, -1.000000000000000000 ) ) ;
#7 = CARTESIAN_POINT ( 'NONE',  ( -8.551662891793915461E-31, 2.999519565323715216E-32, -2.449293598294706414E-16 ) ) ;
#8 = ORIENTED_EDGE ( 'NONE', *, *, #36, .F. ) ;
#9 = PERSON_AND_ORGANIZATION ( #48, #65 ) ;
#10 = ADVANCED_FACE ( 'NONE', ( #122, #189 ), #60, .T. ) ;
#11 = EDGE_LOOP ( 'NONE', ( #26 ) ) ;
#12 = PERSON_AND_ORGANIZATION_ROLE ( 'classification_officer' ) ;
#13 = AXIS2_PLACEMENT_3D ( 'NONE', #137, #85, #147 ) ;
#14 = SHAPE_DEFINITION_REPRESENTATION ( #115, #15 ) ;
#15 = ADVANCED_BREP_SHAPE_REPRESENTATION ( '57121', ( #31, #163, #59 ), #76 ) ;
#16 = COORDINATED_UNIVERSAL_TIME_OFFSET ( 1, 0, .AHEAD. ) ;
#17 = APPROVAL_STATUS ( 'not_yet_approved' ) ;
#18 = LOCAL_TIME ( 16, 41, 55.00000000000000000, #154 ) ;
#19 = PERSON_AND_ORGANIZATION ( #48, #65 ) ;
#20 = CC_DESIGN_DATE_AND_TIME_ASSIGNMENT ( #93, #33, ( #114 ) ) ;
#21 = APPROVAL_PERSON_ORGANIZATION ( #73, #96, #121 ) ;
#22 =( LENGTH_UNIT ( ) NAMED_UNIT ( * ) SI_UNIT ( .MILLI., .METRE. ) );
#23 = APPROVAL ( #17, 'UNSPECIFIED' ) ;
#24 = EDGE_LOOP ( 'NONE', ( #153 ) ) ;
#25 = APPROVAL_DATE_TIME ( #186, #96 ) ;
#26 = ORIENTED_EDGE ( 'NONE', *, *, #182, .T. ) ;
#27 = AXIS2_PLACEMENT_3D ( 'NONE', #50, #5, #68 ) ;
#28 = EDGE_LOOP ( 'NONE', ( #72 ) ) ;
#29 = CARTESIAN_POINT ( 'NONE',  ( 1.745740669421566678E-13, 1.199807826129479518E-32, 50.00000000000000000 ) ) ;
#30 = EDGE_LOOP ( 'NONE', ( #44 ) ) ;
#31 = MANIFOLD_SOLID_BREP ( 'Corps-Déplacer/Copier1[1]', #100 ) ;
#32 = PERSON_AND_ORGANIZATION ( #48, #65 ) ;
#33 = DATE_TIME_ROLE ( 'creation_date' ) ;
#34 = PERSON_AND_ORGANIZATION_ROLE ( 'creator' ) ;
#35 = LOCAL_TIME ( 16, 41, 55.00000000000000000, #112 ) ;
#36 = EDGE_CURVE ( 'NONE', #49, #49, #198, .T. ) ;
#37 = APPLICATION_CONTEXT ( 'configuration controlled 3d designs of mechanical parts and assemblies' ) ;
#38 = FACE_OUTER_BOUND ( 'NONE', #110, .T. ) ;
#39 = DIRECTION ( 'NONE',  ( 4.275831445896958607E-31, 1.000000000000000000, 1.224646799147353207E-16 ) ) ;
#40 = CARTESIAN_POINT ( 'NONE',  ( 0.0000000000000000000, 0.0000000000000000000, 0.0000000000000000000 ) ) ;
#41 = CARTESIAN_POINT ( 'NONE',  ( 4.189777606611760026E-14, 1.999999999999998668, 12.00000000000000000 ) ) ;
#42 = DIRECTION ( 'NONE',  ( 0.0000000000000000000, 1.000000000000000000, 0.0000000000000000000 ) ) ;
#43 = DIRECTION ( 'NONE',  ( -4.275831445896958607E-31, -1.000000000000000000, -1.224646799147353207E-16 ) ) ;
#44 = ORIENTED_EDGE ( 'NONE', *, *, #45, .T. ) ;
#45 = EDGE_CURVE ( 'NONE', #101, #101, #149, .T. ) ;
#46 = PLANE ( 'NONE',  #58 ) ;
#47 = PRODUCT_DEFINITION_FORMATION_WITH_SPECIFIED_SOURCE ( 'ANY', '', #102, .NOT_KNOWN. ) ;
#48 = PERSON ( 'UNSPECIFIED', 'UNSPECIFIED', 'UNSPECIFIED', ('UNSPECIFIED'), ('UNSPECIFIED'), ('UNSPECIFIED') ) ;
#49 = VERTEX_POINT ( 'NONE', #55 ) ;
#50 = CARTESIAN_POINT ( 'NONE',  ( 0.0000000000000000000, 0.0000000000000000000, 0.0000000000000000000 ) ) ;
#51 = AXIS2_PLACEMENT_3D ( 'NONE', #146, #170, #183 ) ;
#52 = APPROVAL_STATUS ( 'not_yet_approved' ) ;
#53 = EDGE_LOOP ( 'NONE', ( #191 ) ) ;
#54 = DESIGN_CONTEXT ( 'detailed design', #37, 'design' ) ;
#55 = CARTESIAN_POINT ( 'NONE',  ( 1.745740669421566678E-13, 1.599999999999997202, 50.00000000000000000 ) ) ;
#56 = DIRECTION ( 'NONE',  ( -3.491481338843133355E-15, 1.224646799147353207E-16, -1.000000000000000000 ) ) ;
#57 = COORDINATED_UNIVERSAL_TIME_OFFSET ( 1, 0, .AHEAD. ) ;
#58 = AXIS2_PLACEMENT_3D ( 'NONE', #113, #178, #43 ) ;
#59 = AXIS2_PLACEMENT_3D ( 'NONE', #119, #87, #184 ) ;
#60 = CYLINDRICAL_SURFACE ( 'NONE', #161, 2.000000000000000000 ) ;
#61 = CC_DESIGN_DATE_AND_TIME_ASSIGNMENT ( #117, #91, ( #71 ) ) ;
#62 = FACE_OUTER_BOUND ( 'NONE', #28, .T. ) ;
#63 = CC_DESIGN_PERSON_AND_ORGANIZATION_ASSIGNMENT ( #176, #159, ( #114 ) ) ;
#64 = AXIS2_PLACEMENT_3D ( 'NONE', #169, #56, #42 ) ;
#65 = ORGANIZATION ( 'UNSPECIFIED', 'UNSPECIFIED', '' ) ;
#66 = EDGE_CURVE ( 'NONE', #69, #69, #120, .T. ) ;
#67 = PRODUCT_RELATED_PRODUCT_CATEGORY ( 'detail', '', ( #102 ) ) ;
#68 = DIRECTION ( 'NONE',  ( 4.275831445896958607E-31, 1.000000000000000000, 1.224646799147353207E-16 ) ) ;
#69 = VERTEX_POINT ( 'NONE', #41 ) ;
#70 = DIRECTION ( 'NONE',  ( 0.0000000000000000000, 1.000000000000000000, 0.0000000000000000000 ) ) ;
#71 = SECURITY_CLASSIFICATION ( '', '', #179 ) ;
#72 = ORIENTED_EDGE ( 'NONE', *, *, #66, .F. ) ;
#73 = PERSON_AND_ORGANIZATION ( #48, #65 ) ;
#74 = CARTESIAN_POINT ( 'NONE',  ( 4.189777606611760026E-14, 1.999999999999998668, 12.00000000000000000 ) ) ;
#75 = EDGE_LOOP ( 'NONE', ( #108 ) ) ;
#76 =( GEOMETRIC_REPRESENTATION_CONTEXT ( 3 ) GLOBAL_UNCERTAINTY_ASSIGNED_CONTEXT ( ( #86 ) ) GLOBAL_UNIT_ASSIGNED_CONTEXT ( ( #22, #105, #152 ) ) REPRESENTATION_CONTEXT ( 'NONE', 'WORKASPACE' ) );
#77 = PERSON_AND_ORGANIZATION ( #48, #65 ) ;
#78 = ORIENTED_EDGE ( 'NONE', *, *, #36, .T. ) ;
#79 = APPROVAL ( #157, 'UNSPECIFIED' ) ;
#80 = COORDINATED_UNIVERSAL_TIME_OFFSET ( 1, 0, .AHEAD. ) ;
#81 = CC_DESIGN_APPROVAL ( #96, ( #114 ) ) ;
#82 = AXIS2_PLACEMENT_3D ( 'NONE', #29, #188, #99 ) ;
#83 = CALENDAR_DATE ( 2021, 15, 11 ) ;
#84 = MECHANICAL_CONTEXT ( 'NONE', #158, 'mechanical' ) ;
#85 = DIRECTION ( 'NONE',  ( -3.491481338843133355E-15, 1.224646799147353207E-16, -1.000000000000000000 ) ) ;
#86 = UNCERTAINTY_MEASURE_WITH_UNIT (LENGTH_MEASURE( 1.000000000000000082E-05 ), #22, 'distance_accuracy_value', 'NONE');
#87 = DIRECTION ( 'NONE',  ( 0.0000000000000000000, 0.0000000000000000000, 1.000000000000000000 ) ) ;
#88 = CARTESIAN_POINT ( 'NONE',  ( 4.189777606611760026E-14, 1.499759782661855966E-32, 12.00000000000000000 ) ) ;
#89 = CARTESIAN_POINT ( 'NONE',  ( 1.731774744066194649E-13, 1.999999999999994893, 49.60000000000001563 ) ) ;
#90 = ORIENTED_EDGE ( 'NONE', *, *, #45, .F. ) ;
#91 = DATE_TIME_ROLE ( 'classification_date' ) ;
#92 = APPROVAL_DATE_TIME ( #160, #79 ) ;
#93 = DATE_AND_TIME ( #127, #35 ) ;
#94 = CIRCLE ( 'NONE', #132, 2.000000000000000888 ) ;
#95 = LOCAL_TIME ( 16, 41, 55.00000000000000000, #16 ) ;
#96 = APPROVAL ( #52, 'UNSPECIFIED' ) ;
#97 = AXIS2_PLACEMENT_3D ( 'NONE', #151, #6, #70 ) ;
#98 = CC_DESIGN_APPROVAL ( #23, ( #71 ) ) ;
#99 = DIRECTION ( 'NONE',  ( 4.275831445896958607E-31, 1.000000000000000000, 1.224646799147353207E-16 ) ) ;
#100 = CLOSED_SHELL ( 'NONE', ( #143, #197, #134, #203 ) ) ;
#101 = VERTEX_POINT ( 'NONE', #74 ) ;
#102 = PRODUCT ( '57121', '57121', '', ( #84 ) ) ;
#103 = APPLICATION_PROTOCOL_DEFINITION ( 'international standard', 'config_control_design', 1994, #37 ) ;
#104 = FACE_OUTER_BOUND ( 'NONE', #75, .T. ) ;
#105 =( NAMED_UNIT ( * ) PLANE_ANGLE_UNIT ( ) SI_UNIT ( $, .RADIAN. ) );
#106 = FACE_OUTER_BOUND ( 'NONE', #30, .T. ) ;
#107 = CYLINDRICAL_SURFACE ( 'NONE', #27, 2.000000000000000444 ) ;
#108 = ORIENTED_EDGE ( 'NONE', *, *, #4, .F. ) ;
#109 = APPROVAL_ROLE ( '' ) ;
#110 = EDGE_LOOP ( 'NONE', ( #8 ) ) ;
#111 = CC_DESIGN_PERSON_AND_ORGANIZATION_ASSIGNMENT ( #32, #12, ( #71 ) ) ;
#112 = COORDINATED_UNIVERSAL_TIME_OFFSET ( 1, 0, .AHEAD. ) ;
#113 = CARTESIAN_POINT ( 'NONE',  ( 4.189777606611760026E-14, 1.499759782661855966E-32, 12.00000000000000000 ) ) ;
#114 = PRODUCT_DEFINITION ( 'UNKNOWN', '', #47, #54 ) ;
#115 = PRODUCT_DEFINITION_SHAPE ( 'NONE', 'NONE',  #114 ) ;
#116 = CALENDAR_DATE ( 2021, 15, 11 ) ;
#117 = DATE_AND_TIME ( #180, #95 ) ;
#118 = CC_DESIGN_SECURITY_CLASSIFICATION ( #71, ( #47 ) ) ;
#119 = CARTESIAN_POINT ( 'NONE',  ( 0.0000000000000000000, 0.0000000000000000000, 0.0000000000000000000 ) ) ;
#120 = CIRCLE ( 'NONE', #129, 2.000000000000000000 ) ;
#121 = APPROVAL_ROLE ( '' ) ;
#122 = FACE_OUTER_BOUND ( 'NONE', #53, .T. ) ;
#123 = DIRECTION ( 'NONE',  ( 0.0000000000000000000, 1.000000000000000000, 0.0000000000000000000 ) ) ;
#124 = FACE_OUTER_BOUND ( 'NONE', #24, .T. ) ;
#125 = DIRECTION ( 'NONE',  ( -3.491481338843133355E-15, 1.224646799147353207E-16, -1.000000000000000000 ) ) ;
#126 = DIRECTION ( 'NONE',  ( 3.491481338843133355E-15, -1.224646799147353207E-16, 1.000000000000000000 ) ) ;
#127 = CALENDAR_DATE ( 2021, 15, 11 ) ;
#128 = CALENDAR_DATE ( 2021, 15, 11 ) ;
#129 = AXIS2_PLACEMENT_3D ( 'NONE', #135, #202, #200 ) ;
#130 = CC_DESIGN_APPROVAL ( #79, ( #47 ) ) ;
#131 = CC_DESIGN_PERSON_AND_ORGANIZATION_ASSIGNMENT ( #19, #142, ( #47 ) ) ;
#132 = AXIS2_PLACEMENT_3D ( 'NONE', #138, #185, #123 ) ;
#133 = VERTEX_POINT ( 'NONE', #89 ) ;
#134 = ADVANCED_FACE ( 'NONE', ( #187, #104 ), #194, .T. ) ;
#135 = CARTESIAN_POINT ( 'NONE',  ( 4.189777606611760026E-14, -1.469576158976823947E-15, 12.00000000000000000 ) ) ;
#136 = PLANE ( 'NONE',  #51 ) ;
#137 = CARTESIAN_POINT ( 'NONE',  ( 1.745740669421566678E-13, -6.123233995736766085E-15, 50.00000000000000000 ) ) ;
#138 = CARTESIAN_POINT ( 'NONE',  ( 1.731774744066194649E-13, -6.074248123770873446E-15, 49.60000000000001563 ) ) ;
#139 = APPROVAL_DATE_TIME ( #1, #23 ) ;
#140 = ORIENTED_EDGE ( 'NONE', *, *, #182, .F. ) ;
#141 = PERSON_AND_ORGANIZATION ( #48, #65 ) ;
#142 = PERSON_AND_ORGANIZATION_ROLE ( 'design_supplier' ) ;
#143 = ADVANCED_FACE ( 'NONE', ( #106 ), #171, .F. ) ;
#144 = AXIS2_PLACEMENT_3D ( 'NONE', #88, #126, #193 ) ;
#145 = ADVANCED_FACE ( 'NONE', ( #62 ), #46, .T. ) ;
#146 = CARTESIAN_POINT ( 'NONE',  ( -4.275831445896957731E-31, 1.499759782661857608E-32, -1.224646799147353207E-16 ) ) ;
#147 = DIRECTION ( 'NONE',  ( 0.0000000000000000000, 1.000000000000000000, 0.0000000000000000000 ) ) ;
#148 = EDGE_LOOP ( 'NONE', ( #90 ) ) ;
#149 = CIRCLE ( 'NONE', #97, 2.000000000000000000 ) ;
#150 = APPLICATION_PROTOCOL_DEFINITION ( 'international standard', 'config_control_design', 1994, #158 ) ;
#151 = CARTESIAN_POINT ( 'NONE',  ( 4.189777606611760026E-14, -1.469576158976823947E-15, 12.00000000000000000 ) ) ;
#152 =( NAMED_UNIT ( * ) SI_UNIT ( $, .STERADIAN. ) SOLID_ANGLE_UNIT ( ) );
#153 = ORIENTED_EDGE ( 'NONE', *, *, #4, .T. ) ;
#154 = COORDINATED_UNIVERSAL_TIME_OFFSET ( 1, 0, .AHEAD. ) ;
#155 = EDGE_LOOP ( 'NONE', ( #140 ) ) ;
#156 = CIRCLE ( 'NONE', #181, 2.000000000000000000 ) ;
#157 = APPROVAL_STATUS ( 'not_yet_approved' ) ;
#158 = APPLICATION_CONTEXT ( 'configuration controlled 3d designs of mechanical parts and assemblies' ) ;
#159 = PERSON_AND_ORGANIZATION_ROLE ( 'creator' ) ;
#160 = DATE_AND_TIME ( #116, #18 ) ;
#161 = AXIS2_PLACEMENT_3D ( 'NONE', #40, #125, #39 ) ;
#162 = APPROVAL_PERSON_ORGANIZATION ( #141, #23, #174 ) ;
#163 = MANIFOLD_SOLID_BREP ( 'Corps-Déplacer/Copier1[2]', #2 ) ;
#164 = CC_DESIGN_PERSON_AND_ORGANIZATION_ASSIGNMENT ( #9, #199, ( #102 ) ) ;
#165 = CARTESIAN_POINT ( 'NONE',  ( 1.710569414459005214E-46, 2.000000000000000000, 0.0000000000000000000 ) ) ;
#166 = LOCAL_TIME ( 16, 41, 55.00000000000000000, #80 ) ;
#167 = FACE_OUTER_BOUND ( 'NONE', #148, .T. ) ;
#168 = VERTEX_POINT ( 'NONE', #165 ) ;
#169 = CARTESIAN_POINT ( 'NONE',  ( 1.731774744066194649E-13, -6.074248123770873446E-15, 49.60000000000001563 ) ) ;
#170 = DIRECTION ( 'NONE',  ( -3.491481338843133355E-15, 1.224646799147353207E-16, -1.000000000000000000 ) ) ;
#171 = PLANE ( 'NONE',  #144 ) ;
#172 = CC_DESIGN_PERSON_AND_ORGANIZATION_ASSIGNMENT ( #77, #34, ( #47 ) ) ;
#173 = PLANE ( 'NONE',  #82 ) ;
#174 = APPROVAL_ROLE ( '' ) ;
#175 = EDGE_LOOP ( 'NONE', ( #78 ) ) ;
#176 = PERSON_AND_ORGANIZATION ( #48, #65 ) ;
#177 = ADVANCED_FACE ( 'NONE', ( #201 ), #136, .T. ) ;
#178 = DIRECTION ( 'NONE',  ( 3.491481338843133355E-15, -1.224646799147353207E-16, 1.000000000000000000 ) ) ;
#179 = SECURITY_CLASSIFICATION_LEVEL ( 'unclassified' ) ;
#180 = CALENDAR_DATE ( 2021, 15, 11 ) ;
#181 = AXIS2_PLACEMENT_3D ( 'NONE', #7, #190, #3 ) ;
#182 = EDGE_CURVE ( 'NONE', #168, #168, #156, .T. ) ;
#183 = DIRECTION ( 'NONE',  ( 4.275831445896958607E-31, 1.000000000000000000, 1.224646799147353207E-16 ) ) ;
#184 = DIRECTION ( 'NONE',  ( 1.000000000000000000, 0.0000000000000000000, 0.0000000000000000000 ) ) ;
#185 = DIRECTION ( 'NONE',  ( -3.491481338843133355E-15, 1.224646799147353207E-16, -1.000000000000000000 ) ) ;
#186 = DATE_AND_TIME ( #83, #192 ) ;
#187 = FACE_BOUND ( 'NONE', #175, .T. ) ;
#188 = DIRECTION ( 'NONE',  ( -3.491481338843133355E-15, 1.224646799147353207E-16, -1.000000000000000000 ) ) ;
#189 = FACE_OUTER_BOUND ( 'NONE', #155, .T. ) ;
#190 = DIRECTION ( 'NONE',  ( -3.491481338843133355E-15, 1.224646799147353207E-16, -1.000000000000000000 ) ) ;
#191 = ORIENTED_EDGE ( 'NONE', *, *, #66, .T. ) ;
#192 = LOCAL_TIME ( 16, 41, 55.00000000000000000, #57 ) ;
#193 = DIRECTION ( 'NONE',  ( -4.275831445896958607E-31, -1.000000000000000000, -1.224646799147353207E-16 ) ) ;
#194 = CONICAL_SURFACE ( 'NONE', #64, 2.000000000000000888, 0.7853981633974569387 ) ;
#195 = PERSON_AND_ORGANIZATION ( #48, #65 ) ;
#196 = APPROVAL_PERSON_ORGANIZATION ( #195, #79, #109 ) ;
#197 = ADVANCED_FACE ( 'NONE', ( #124, #167 ), #107, .T. ) ;
#198 = CIRCLE ( 'NONE', #13, 1.600000000000003419 ) ;
#199 = PERSON_AND_ORGANIZATION_ROLE ( 'design_owner' ) ;
#200 = DIRECTION ( 'NONE',  ( 0.0000000000000000000, 1.000000000000000000, 0.0000000000000000000 ) ) ;
#201 = FACE_OUTER_BOUND ( 'NONE', #11, .T. ) ;
#202 = DIRECTION ( 'NONE',  ( -3.491481338843133355E-15, 1.224646799147353207E-16, -1.000000000000000000 ) ) ;
#203 = ADVANCED_FACE ( 'NONE', ( #38 ), #173, .F. ) ;
ENDSEC;
END-ISO-10303-21;
