ISO-10303-21;
HEADER;
FILE_DESCRIPTION (( 'STEP AP203' ),
    '1' );
FILE_NAME ('57120.step',
    '2021-11-15T15:41:55',
    ( '' ),
    ( '' ),
    'SwSTEP 2.0',
    'SolidWorks 2019',
    '' );
FILE_SCHEMA (( 'CONFIG_CONTROL_DESIGN' ));
ENDSEC;

DATA;
#1 = CARTESIAN_POINT ( 'NONE',  ( 3.491481338843133355E-14, 1.499999999999998890, 10.00000000000000000 ) ) ;
#2 = COORDINATED_UNIVERSAL_TIME_OFFSET ( 1, 0, .AHEAD. ) ;
#3 = EDGE_LOOP ( 'NONE', ( #66 ) ) ;
#4 = ORIENTED_EDGE ( 'NONE', *, *, #55, .F. ) ;
#5 = ORIENTED_EDGE ( 'NONE', *, *, #139, .T. ) ;
#6 = DIRECTION ( 'NONE',  ( -3.491481338843133355E-15, 1.224646799147353207E-16, -1.000000000000000000 ) ) ;
#7 = DIRECTION ( 'NONE',  ( 0.0000000000000000000, 1.000000000000000000, 0.0000000000000000000 ) ) ;
#8 = DIRECTION ( 'NONE',  ( 0.0000000000000000000, 1.000000000000000000, 0.0000000000000000000 ) ) ;
#9 = CC_DESIGN_PERSON_AND_ORGANIZATION_ASSIGNMENT ( #114, #145, ( #70 ) ) ;
#10 = CARTESIAN_POINT ( 'NONE',  ( 3.491481338843133355E-14, 1.124819836996391427E-32, 10.00000000000000000 ) ) ;
#11 = EDGE_CURVE ( 'NONE', #159, #159, #194, .T. ) ;
#12 = CALENDAR_DATE ( 2021, 15, 11 ) ;
#13 = PERSON_AND_ORGANIZATION ( #132, #47 ) ;
#14 = CALENDAR_DATE ( 2021, 15, 11 ) ;
#15 = AXIS2_PLACEMENT_3D ( 'NONE', #10, #71, #190 ) ;
#16 = APPLICATION_PROTOCOL_DEFINITION ( 'international standard', 'config_control_design', 1994, #178 ) ;
#17 = ORIENTED_EDGE ( 'NONE', *, *, #55, .T. ) ;
#18 = SECURITY_CLASSIFICATION_LEVEL ( 'unclassified' ) ;
#19 = CC_DESIGN_DATE_AND_TIME_ASSIGNMENT ( #182, #56, ( #20 ) ) ;
#20 = PRODUCT_DEFINITION ( 'UNKNOWN', '', #38, #89 ) ;
#21 = FACE_OUTER_BOUND ( 'NONE', #96, .T. ) ;
#22 = ADVANCED_FACE ( 'NONE', ( #110 ), #122, .T. ) ;
#23 = DATE_AND_TIME ( #83, #124 ) ;
#24 = PLANE ( 'NONE',  #164 ) ;
#25 = SHAPE_DEFINITION_REPRESENTATION ( #148, #199 ) ;
#26 = CARTESIAN_POINT ( 'NONE',  ( -3.206873584422719393E-31, 1.124819836996393206E-32, -9.184850993605149670E-17 ) ) ;
#27 = AXIS2_PLACEMENT_3D ( 'NONE', #88, #136, #50 ) ;
#28 = PERSON_AND_ORGANIZATION_ROLE ( 'creator' ) ;
#29 = CALENDAR_DATE ( 2021, 15, 11 ) ;
#30 = ORIENTED_EDGE ( 'NONE', *, *, #59, .T. ) ;
#31 = APPROVAL_STATUS ( 'not_yet_approved' ) ;
#32 = AXIS2_PLACEMENT_3D ( 'NONE', #151, #154, #128 ) ;
#33 = FACE_OUTER_BOUND ( 'NONE', #158, .T. ) ;
#34 = CARTESIAN_POINT ( 'NONE',  ( -6.413747168845438786E-31, 2.249639673992786412E-32, -1.836970198721029934E-16 ) ) ;
#35 = DIRECTION ( 'NONE',  ( -3.491481338843133355E-15, 1.224646799147353207E-16, -1.000000000000000000 ) ) ;
#36 = CC_DESIGN_PERSON_AND_ORGANIZATION_ASSIGNMENT ( #166, #28, ( #38 ) ) ;
#37 = PLANE ( 'NONE',  #186 ) ;
#38 = PRODUCT_DEFINITION_FORMATION_WITH_SPECIFIED_SOURCE ( 'ANY', '', #196, .NOT_KNOWN. ) ;
#39 = DATE_AND_TIME ( #12, #63 ) ;
#40 = CC_DESIGN_PERSON_AND_ORGANIZATION_ASSIGNMENT ( #183, #73, ( #196 ) ) ;
#41 = AXIS2_PLACEMENT_3D ( 'NONE', #118, #162, #173 ) ;
#42 = COORDINATED_UNIVERSAL_TIME_OFFSET ( 1, 0, .AHEAD. ) ;
#43 = APPLICATION_PROTOCOL_DEFINITION ( 'international standard', 'config_control_design', 1994, #129 ) ;
#44 = EDGE_LOOP ( 'NONE', ( #5 ) ) ;
#45 = DIRECTION ( 'NONE',  ( 0.0000000000000000000, 1.000000000000000000, 0.0000000000000000000 ) ) ;
#46 = CIRCLE ( 'NONE', #86, 1.500000000000000222 ) ;
#47 = ORGANIZATION ( 'UNSPECIFIED', 'UNSPECIFIED', '' ) ;
#48 = DATE_AND_TIME ( #188, #93 ) ;
#49 = CIRCLE ( 'NONE', #98, 1.200000000000004174 ) ;
#50 = DIRECTION ( 'NONE',  ( 0.0000000000000000000, 1.000000000000000000, 0.0000000000000000000 ) ) ;
#51 = DIRECTION ( 'NONE',  ( 4.275831445896958607E-31, 1.000000000000000000, 1.224646799147353207E-16 ) ) ;
#52 = FACE_OUTER_BOUND ( 'NONE', #3, .T. ) ;
#53 = CONICAL_SURFACE ( 'NONE', #27, 1.500000000000002442, 0.7853981633974425058 ) ;
#54 = DIRECTION ( 'NONE',  ( 4.275831445896958607E-31, 1.000000000000000000, 1.224646799147353207E-16 ) ) ;
#55 = EDGE_CURVE ( 'NONE', #142, #142, #46, .T. ) ;
#56 = DATE_TIME_ROLE ( 'creation_date' ) ;
#57 = AXIS2_PLACEMENT_3D ( 'NONE', #131, #185, #45 ) ;
#58 = CC_DESIGN_APPROVAL ( #192, ( #20 ) ) ;
#59 = EDGE_CURVE ( 'NONE', #60, #60, #115, .T. ) ;
#60 = VERTEX_POINT ( 'NONE', #75 ) ;
#61 = ORIENTED_EDGE ( 'NONE', *, *, #11, .F. ) ;
#62 = AXIS2_PLACEMENT_3D ( 'NONE', #34, #67, #191 ) ;
#63 = LOCAL_TIME ( 16, 41, 55.00000000000000000, #125 ) ;
#64 = EDGE_LOOP ( 'NONE', ( #107 ) ) ;
#65 = ORIENTED_EDGE ( 'NONE', *, *, #111, .T. ) ;
#66 = ORIENTED_EDGE ( 'NONE', *, *, #11, .T. ) ;
#67 = DIRECTION ( 'NONE',  ( -3.491481338843133355E-15, 1.224646799147353207E-16, -1.000000000000000000 ) ) ;
#68 = DIRECTION ( 'NONE',  ( -3.491481338843133355E-15, 1.224646799147353207E-16, -1.000000000000000000 ) ) ;
#69 = DIRECTION ( 'NONE',  ( 0.0000000000000000000, 1.000000000000000000, 0.0000000000000000000 ) ) ;
#70 = SECURITY_CLASSIFICATION ( '', '', #18 ) ;
#71 = DIRECTION ( 'NONE',  ( 3.491481338843133355E-15, -1.224646799147353207E-16, 1.000000000000000000 ) ) ;
#72 = UNCERTAINTY_MEASURE_WITH_UNIT (LENGTH_MEASURE( 1.000000000000000082E-05 ), #203, 'distance_accuracy_value', 'NONE');
#73 = PERSON_AND_ORGANIZATION_ROLE ( 'design_owner' ) ;
#74 = COORDINATED_UNIVERSAL_TIME_OFFSET ( 1, 0, .AHEAD. ) ;
#75 = CARTESIAN_POINT ( 'NONE',  ( 3.491481338843133355E-14, 1.499999999999998890, 10.00000000000000000 ) ) ;
#76 = ADVANCED_FACE ( 'NONE', ( #138, #33 ), #97, .T. ) ;
#77 = CIRCLE ( 'NONE', #62, 1.500000000000000000 ) ;
#78 = DATE_AND_TIME ( #29, #149 ) ;
#79 = ORIENTED_EDGE ( 'NONE', *, *, #111, .F. ) ;
#80 = EDGE_LOOP ( 'NONE', ( #65 ) ) ;
#81 = COORDINATED_UNIVERSAL_TIME_OFFSET ( 1, 0, .AHEAD. ) ;
#82 = DIRECTION ( 'NONE',  ( -3.491481338843133355E-15, 1.224646799147353207E-16, -1.000000000000000000 ) ) ;
#83 = CALENDAR_DATE ( 2021, 15, 11 ) ;
#84 = DIRECTION ( 'NONE',  ( -3.491481338843133355E-15, 1.224646799147353207E-16, -1.000000000000000000 ) ) ;
#85 = PLANE ( 'NONE',  #15 ) ;
#86 = AXIS2_PLACEMENT_3D ( 'NONE', #101, #6, #8 ) ;
#87 = CC_DESIGN_APPROVAL ( #108, ( #38 ) ) ;
#88 = CARTESIAN_POINT ( 'NONE',  ( 1.316288464743861212E-13, -4.616918432785521081E-15, 37.69999999999999574 ) ) ;
#89 = DESIGN_CONTEXT ( 'detailed design', #129, 'design' ) ;
#90 = PERSON_AND_ORGANIZATION_ROLE ( 'creator' ) ;
#91 = CARTESIAN_POINT ( 'NONE',  ( 1.316288464743861212E-13, 1.499999999999997780, 37.69999999999999574 ) ) ;
#92 = PERSON_AND_ORGANIZATION ( #132, #47 ) ;
#93 = LOCAL_TIME ( 16, 41, 55.00000000000000000, #2 ) ;
#94 = MANIFOLD_SOLID_BREP ( 'Corps-Déplacer/Copier1[2]', #160 ) ;
#95 = EDGE_LOOP ( 'NONE', ( #17 ) ) ;
#96 = EDGE_LOOP ( 'NONE', ( #157 ) ) ;
#97 = CYLINDRICAL_SURFACE ( 'NONE', #41, 1.500000000000000000 ) ;
#98 = AXIS2_PLACEMENT_3D ( 'NONE', #100, #84, #69 ) ;
#99 = APPROVAL_PERSON_ORGANIZATION ( #13, #192, #141 ) ;
#100 = CARTESIAN_POINT ( 'NONE',  ( 1.326762908760390423E-13, -4.653657836759941941E-15, 38.00000000000000000 ) ) ;
#101 = CARTESIAN_POINT ( 'NONE',  ( 3.491481338843133355E-14, -1.224646799147353256E-15, 10.00000000000000000 ) ) ;
#102 = AXIS2_PLACEMENT_3D ( 'NONE', #195, #121, #54 ) ;
#103 = APPROVAL_PERSON_ORGANIZATION ( #140, #108, #200 ) ;
#104 = VERTEX_POINT ( 'NONE', #181 ) ;
#105 = APPROVAL_DATE_TIME ( #39, #108 ) ;
#106 = APPROVAL_STATUS ( 'not_yet_approved' ) ;
#107 = ORIENTED_EDGE ( 'NONE', *, *, #59, .F. ) ;
#108 = APPROVAL ( #106, 'UNSPECIFIED' ) ;
#109 = MECHANICAL_CONTEXT ( 'NONE', #178, 'mechanical' ) ;
#110 = FACE_OUTER_BOUND ( 'NONE', #146, .T. ) ;
#111 = EDGE_CURVE ( 'NONE', #198, #198, #77, .T. ) ;
#112 = EDGE_LOOP ( 'NONE', ( #30 ) ) ;
#113 = DATE_TIME_ROLE ( 'classification_date' ) ;
#114 = PERSON_AND_ORGANIZATION ( #132, #47 ) ;
#115 = CIRCLE ( 'NONE', #133, 1.500000000000000222 ) ;
#116 = CC_DESIGN_APPROVAL ( #153, ( #70 ) ) ;
#117 = CYLINDRICAL_SURFACE ( 'NONE', #102, 1.500000000000001332 ) ;
#118 = CARTESIAN_POINT ( 'NONE',  ( 0.0000000000000000000, 0.0000000000000000000, 0.0000000000000000000 ) ) ;
#119 = CC_DESIGN_PERSON_AND_ORGANIZATION_ASSIGNMENT ( #92, #168, ( #38 ) ) ;
#120 = DIRECTION ( 'NONE',  ( 3.491481338843133355E-15, -1.224646799147353207E-16, 1.000000000000000000 ) ) ;
#121 = DIRECTION ( 'NONE',  ( -3.491481338843133355E-15, 1.224646799147353207E-16, -1.000000000000000000 ) ) ;
#122 = PLANE ( 'NONE',  #137 ) ;
#123 = PRODUCT_RELATED_PRODUCT_CATEGORY ( 'detail', '', ( #196 ) ) ;
#124 = LOCAL_TIME ( 16, 41, 55.00000000000000000, #81 ) ;
#125 = COORDINATED_UNIVERSAL_TIME_OFFSET ( 1, 0, .AHEAD. ) ;
#126 =( NAMED_UNIT ( * ) SI_UNIT ( $, .STERADIAN. ) SOLID_ANGLE_UNIT ( ) );
#127 = ADVANCED_FACE ( 'NONE', ( #177 ), #37, .T. ) ;
#128 = DIRECTION ( 'NONE',  ( 1.000000000000000000, 0.0000000000000000000, 0.0000000000000000000 ) ) ;
#129 = APPLICATION_CONTEXT ( 'configuration controlled 3d designs of mechanical parts and assemblies' ) ;
#130 = CARTESIAN_POINT ( 'NONE',  ( 0.0000000000000000000, 1.500000000000000000, 0.0000000000000000000 ) ) ;
#131 = CARTESIAN_POINT ( 'NONE',  ( 1.316288464743861212E-13, -4.616918432785521081E-15, 37.69999999999999574 ) ) ;
#132 = PERSON ( 'UNSPECIFIED', 'UNSPECIFIED', 'UNSPECIFIED', ('UNSPECIFIED'), ('UNSPECIFIED'), ('UNSPECIFIED') ) ;
#133 = AXIS2_PLACEMENT_3D ( 'NONE', #193, #82, #7 ) ;
#134 = FACE_BOUND ( 'NONE', #44, .T. ) ;
#135 = FACE_OUTER_BOUND ( 'NONE', #112, .T. ) ;
#136 = DIRECTION ( 'NONE',  ( -3.491481338843133355E-15, 1.224646799147353207E-16, -1.000000000000000000 ) ) ;
#137 = AXIS2_PLACEMENT_3D ( 'NONE', #163, #120, #175 ) ;
#138 = FACE_OUTER_BOUND ( 'NONE', #95, .T. ) ;
#139 = EDGE_CURVE ( 'NONE', #104, #104, #49, .T. ) ;
#140 = PERSON_AND_ORGANIZATION ( #132, #47 ) ;
#141 = APPROVAL_ROLE ( '' ) ;
#142 = VERTEX_POINT ( 'NONE', #1 ) ;
#143 = ADVANCED_FACE ( 'NONE', ( #134, #161 ), #53, .T. ) ;
#144 = CC_DESIGN_PERSON_AND_ORGANIZATION_ASSIGNMENT ( #167, #90, ( #20 ) ) ;
#145 = PERSON_AND_ORGANIZATION_ROLE ( 'classification_officer' ) ;
#146 = EDGE_LOOP ( 'NONE', ( #4 ) ) ;
#147 = CLOSED_SHELL ( 'NONE', ( #189, #156, #143, #172 ) ) ;
#148 = PRODUCT_DEFINITION_SHAPE ( 'NONE', 'NONE',  #20 ) ;
#149 = LOCAL_TIME ( 16, 41, 55.00000000000000000, #42 ) ;
#150 = CARTESIAN_POINT ( 'NONE',  ( 1.326762908760390423E-13, 8.998558695971110067E-33, 38.00000000000000000 ) ) ;
#151 = CARTESIAN_POINT ( 'NONE',  ( 0.0000000000000000000, 0.0000000000000000000, 0.0000000000000000000 ) ) ;
#152 = LOCAL_TIME ( 16, 41, 55.00000000000000000, #74 ) ;
#153 = APPROVAL ( #31, 'UNSPECIFIED' ) ;
#154 = DIRECTION ( 'NONE',  ( 0.0000000000000000000, 0.0000000000000000000, 1.000000000000000000 ) ) ;
#155 = MANIFOLD_SOLID_BREP ( 'Corps-Déplacer/Copier1[1]', #147 ) ;
#156 = ADVANCED_FACE ( 'NONE', ( #52, #179 ), #117, .T. ) ;
#157 = ORIENTED_EDGE ( 'NONE', *, *, #139, .F. ) ;
#158 = EDGE_LOOP ( 'NONE', ( #79 ) ) ;
#159 = VERTEX_POINT ( 'NONE', #91 ) ;
#160 = CLOSED_SHELL ( 'NONE', ( #127, #76, #22 ) ) ;
#161 = FACE_OUTER_BOUND ( 'NONE', #187, .T. ) ;
#162 = DIRECTION ( 'NONE',  ( -3.491481338843133355E-15, 1.224646799147353207E-16, -1.000000000000000000 ) ) ;
#163 = CARTESIAN_POINT ( 'NONE',  ( 3.491481338843133355E-14, 1.124819836996391427E-32, 10.00000000000000000 ) ) ;
#164 = AXIS2_PLACEMENT_3D ( 'NONE', #150, #68, #171 ) ;
#165 = CC_DESIGN_DATE_AND_TIME_ASSIGNMENT ( #48, #113, ( #70 ) ) ;
#166 = PERSON_AND_ORGANIZATION ( #132, #47 ) ;
#167 = PERSON_AND_ORGANIZATION ( #132, #47 ) ;
#168 = PERSON_AND_ORGANIZATION_ROLE ( 'design_supplier' ) ;
#169 = PERSON_AND_ORGANIZATION ( #132, #47 ) ;
#170 = APPROVAL_ROLE ( '' ) ;
#171 = DIRECTION ( 'NONE',  ( 4.275831445896958607E-31, 1.000000000000000000, 1.224646799147353207E-16 ) ) ;
#172 = ADVANCED_FACE ( 'NONE', ( #21 ), #24, .F. ) ;
#173 = DIRECTION ( 'NONE',  ( 4.275831445896959482E-31, 1.000000000000000000, 1.224646799147353207E-16 ) ) ;
#174 =( GEOMETRIC_REPRESENTATION_CONTEXT ( 3 ) GLOBAL_UNCERTAINTY_ASSIGNED_CONTEXT ( ( #72 ) ) GLOBAL_UNIT_ASSIGNED_CONTEXT ( ( #203, #184, #126 ) ) REPRESENTATION_CONTEXT ( 'NONE', 'WORKASPACE' ) );
#175 = DIRECTION ( 'NONE',  ( -4.275831445896958607E-31, -1.000000000000000000, -1.224646799147353207E-16 ) ) ;
#176 = CC_DESIGN_SECURITY_CLASSIFICATION ( #70, ( #38 ) ) ;
#177 = FACE_OUTER_BOUND ( 'NONE', #80, .T. ) ;
#178 = APPLICATION_CONTEXT ( 'configuration controlled 3d designs of mechanical parts and assemblies' ) ;
#179 = FACE_OUTER_BOUND ( 'NONE', #64, .T. ) ;
#180 = APPROVAL_DATE_TIME ( #78, #192 ) ;
#181 = CARTESIAN_POINT ( 'NONE',  ( 1.326762908760390423E-13, 1.199999999999999734, 38.00000000000000000 ) ) ;
#182 = DATE_AND_TIME ( #14, #152 ) ;
#183 = PERSON_AND_ORGANIZATION ( #132, #47 ) ;
#184 =( NAMED_UNIT ( * ) PLANE_ANGLE_UNIT ( ) SI_UNIT ( $, .RADIAN. ) );
#185 = DIRECTION ( 'NONE',  ( -3.491481338843133355E-15, 1.224646799147353207E-16, -1.000000000000000000 ) ) ;
#186 = AXIS2_PLACEMENT_3D ( 'NONE', #26, #35, #51 ) ;
#187 = EDGE_LOOP ( 'NONE', ( #61 ) ) ;
#188 = CALENDAR_DATE ( 2021, 15, 11 ) ;
#189 = ADVANCED_FACE ( 'NONE', ( #135 ), #85, .F. ) ;
#190 = DIRECTION ( 'NONE',  ( -4.275831445896958607E-31, -1.000000000000000000, -1.224646799147353207E-16 ) ) ;
#191 = DIRECTION ( 'NONE',  ( 4.275831445896959482E-31, 1.000000000000000000, 1.224646799147353207E-16 ) ) ;
#192 = APPROVAL ( #201, 'UNSPECIFIED' ) ;
#193 = CARTESIAN_POINT ( 'NONE',  ( 3.491481338843133355E-14, -1.224646799147353256E-15, 10.00000000000000000 ) ) ;
#194 = CIRCLE ( 'NONE', #57, 1.500000000000002442 ) ;
#195 = CARTESIAN_POINT ( 'NONE',  ( 0.0000000000000000000, 0.0000000000000000000, 0.0000000000000000000 ) ) ;
#196 = PRODUCT ( '57120', '57120', '', ( #109 ) ) ;
#197 = APPROVAL_DATE_TIME ( #23, #153 ) ;
#198 = VERTEX_POINT ( 'NONE', #130 ) ;
#199 = ADVANCED_BREP_SHAPE_REPRESENTATION ( '57120', ( #155, #94, #32 ), #174 ) ;
#200 = APPROVAL_ROLE ( '' ) ;
#201 = APPROVAL_STATUS ( 'not_yet_approved' ) ;
#202 = APPROVAL_PERSON_ORGANIZATION ( #169, #153, #170 ) ;
#203 =( LENGTH_UNIT ( ) NAMED_UNIT ( * ) SI_UNIT ( .MILLI., .METRE. ) );
ENDSEC;
END-ISO-10303-21;
