ISO-10303-21;
HEADER;
FILE_DESCRIPTION (( 'STEP AP203' ),
    '1' );
FILE_NAME ('57119.step',
    '2021-11-15T15:41:54',
    ( '' ),
    ( '' ),
    'SwSTEP 2.0',
    'SolidWorks 2019',
    '' );
FILE_SCHEMA (( 'CONFIG_CONTROL_DESIGN' ));
ENDSEC;

DATA;
#1 = MECHANICAL_CONTEXT ( 'NONE', #161, 'mechanical' ) ;
#2 = DIRECTION ( 'NONE',  ( 1.000000000000000000, 0.0000000000000000000, 0.0000000000000000000 ) ) ;
#3 = AXIS2_PLACEMENT_3D ( 'NONE', #130, #112, #114 ) ;
#4 = CC_DESIGN_SECURITY_CLASSIFICATION ( #102, ( #43 ) ) ;
#5 = CARTESIAN_POINT ( 'NONE',  ( 2.793185071074506684E-14, 1.249999999999998890, 8.000000000000000000 ) ) ;
#6 = ORIENTED_EDGE ( 'NONE', *, *, #13, .T. ) ;
#7 = APPROVAL_ROLE ( '' ) ;
#8 = APPROVAL_ROLE ( '' ) ;
#9 = CYLINDRICAL_SURFACE ( 'NONE', #191, 1.250000000000000000 ) ;
#10 = COORDINATED_UNIVERSAL_TIME_OFFSET ( 1, 0, .AHEAD. ) ;
#11 = FACE_OUTER_BOUND ( 'NONE', #167, .T. ) ;
#12 = CC_DESIGN_PERSON_AND_ORGANIZATION_ASSIGNMENT ( #201, #30, ( #43 ) ) ;
#13 = EDGE_CURVE ( 'NONE', #153, #153, #156, .T. ) ;
#14 = DIRECTION ( 'NONE',  ( 0.0000000000000000000, 1.000000000000000000, 0.0000000000000000000 ) ) ;
#15 = CARTESIAN_POINT ( 'NONE',  ( -2.672394653685598910E-31, 9.373498641636610049E-33, -7.654042494670957853E-17 ) ) ;
#16 = DIRECTION ( 'NONE',  ( -3.491481338843133355E-15, 1.224646799147353207E-16, -1.000000000000000000 ) ) ;
#17 = DIRECTION ( 'NONE',  ( -3.491481338843133355E-15, 1.224646799147353207E-16, -1.000000000000000000 ) ) ;
#18 = DIRECTION ( 'NONE',  ( 0.0000000000000000000, 0.0000000000000000000, 1.000000000000000000 ) ) ;
#19 = APPROVAL ( #48, 'UNSPECIFIED' ) ;
#20 = CC_DESIGN_PERSON_AND_ORGANIZATION_ASSIGNMENT ( #119, #74, ( #198 ) ) ;
#21 = LOCAL_TIME ( 16, 41, 54.00000000000000000, #123 ) ;
#22 = COORDINATED_UNIVERSAL_TIME_OFFSET ( 1, 0, .AHEAD. ) ;
#23 = FACE_OUTER_BOUND ( 'NONE', #61, .T. ) ;
#24 = CARTESIAN_POINT ( 'NONE',  ( -5.344789307371197820E-31, 1.874699728327322010E-32, -1.530808498934191571E-16 ) ) ;
#25 = CALENDAR_DATE ( 2021, 15, 11 ) ;
#26 = FACE_OUTER_BOUND ( 'NONE', #127, .T. ) ;
#27 = ADVANCED_FACE ( 'NONE', ( #176 ), #124, .T. ) ;
#28 = FACE_OUTER_BOUND ( 'NONE', #109, .T. ) ;
#29 = ADVANCED_BREP_SHAPE_REPRESENTATION ( '57119', ( #169, #31, #106 ), #33 ) ;
#30 = PERSON_AND_ORGANIZATION_ROLE ( 'creator' ) ;
#31 = MANIFOLD_SOLID_BREP ( 'Corps-Déplacer/Copier1[2]', #64 ) ;
#32 = DATE_AND_TIME ( #25, #81 ) ;
#33 =( GEOMETRIC_REPRESENTATION_CONTEXT ( 3 ) GLOBAL_UNCERTAINTY_ASSIGNED_CONTEXT ( ( #100 ) ) GLOBAL_UNIT_ASSIGNED_CONTEXT ( ( #117, #35, #155 ) ) REPRESENTATION_CONTEXT ( 'NONE', 'WORKASPACE' ) );
#34 = PLANE ( 'NONE',  #52 ) ;
#35 =( NAMED_UNIT ( * ) PLANE_ANGLE_UNIT ( ) SI_UNIT ( $, .RADIAN. ) );
#36 = APPROVAL_PERSON_ORGANIZATION ( #143, #129, #7 ) ;
#37 = APPLICATION_PROTOCOL_DEFINITION ( 'international standard', 'config_control_design', 1994, #182 ) ;
#38 = APPLICATION_PROTOCOL_DEFINITION ( 'international standard', 'config_control_design', 1994, #161 ) ;
#39 = PERSON_AND_ORGANIZATION ( #149, #179 ) ;
#40 = PRODUCT ( '57119', '57119', '', ( #1 ) ) ;
#41 = CC_DESIGN_DATE_AND_TIME_ASSIGNMENT ( #170, #57, ( #102 ) ) ;
#42 = COORDINATED_UNIVERSAL_TIME_OFFSET ( 1, 0, .AHEAD. ) ;
#43 = PRODUCT_DEFINITION_FORMATION_WITH_SPECIFIED_SOURCE ( 'ANY', '', #40, .NOT_KNOWN. ) ;
#44 = ADVANCED_FACE ( 'NONE', ( #26 ), #174, .F. ) ;
#45 = AXIS2_PLACEMENT_3D ( 'NONE', #50, #70, #86 ) ;
#46 = DIRECTION ( 'NONE',  ( 4.275831445896958607E-31, 1.000000000000000000, 1.224646799147353207E-16 ) ) ;
#47 = CARTESIAN_POINT ( 'NONE',  ( 2.793185071074506684E-14, -9.797174393178825657E-16, 8.000000000000000000 ) ) ;
#48 = APPROVAL_STATUS ( 'not_yet_approved' ) ;
#49 = DIRECTION ( 'NONE',  ( -3.491481338843133355E-15, 1.224646799147353207E-16, -1.000000000000000000 ) ) ;
#50 = CARTESIAN_POINT ( 'NONE',  ( 2.793185071074506684E-14, -9.797174393178825657E-16, 8.000000000000000000 ) ) ;
#51 = APPROVAL_DATE_TIME ( #154, #19 ) ;
#52 = AXIS2_PLACEMENT_3D ( 'NONE', #15, #16, #46 ) ;
#53 = COORDINATED_UNIVERSAL_TIME_OFFSET ( 1, 0, .AHEAD. ) ;
#54 = CC_DESIGN_PERSON_AND_ORGANIZATION_ASSIGNMENT ( #73, #121, ( #102 ) ) ;
#55 = EDGE_LOOP ( 'NONE', ( #187 ) ) ;
#56 = ORIENTED_EDGE ( 'NONE', *, *, #185, .T. ) ;
#57 = DATE_TIME_ROLE ( 'classification_date' ) ;
#58 = SECURITY_CLASSIFICATION_LEVEL ( 'unclassified' ) ;
#59 = CARTESIAN_POINT ( 'NONE',  ( 0.0000000000000000000, 0.0000000000000000000, 0.0000000000000000000 ) ) ;
#60 = CYLINDRICAL_SURFACE ( 'NONE', #3, 1.249999999999999778 ) ;
#61 = EDGE_LOOP ( 'NONE', ( #177 ) ) ;
#62 = AXIS2_PLACEMENT_3D ( 'NONE', #89, #173, #131 ) ;
#63 = ADVANCED_FACE ( 'NONE', ( #95, #28 ), #9, .T. ) ;
#64 = CLOSED_SHELL ( 'NONE', ( #79, #63, #27 ) ) ;
#65 = ADVANCED_FACE ( 'NONE', ( #11, #202 ), #60, .T. ) ;
#66 = CARTESIAN_POINT ( 'NONE',  ( 1.117274028429802674E-13, 7.123858967643803110E-33, 32.00000000000000000 ) ) ;
#67 = PLANE ( 'NONE',  #162 ) ;
#68 = AXIS2_PLACEMENT_3D ( 'NONE', #195, #17, #192 ) ;
#69 = CC_DESIGN_APPROVAL ( #19, ( #198 ) ) ;
#70 = DIRECTION ( 'NONE',  ( -3.491481338843133355E-15, 1.224646799147353207E-16, -1.000000000000000000 ) ) ;
#71 = CALENDAR_DATE ( 2021, 15, 11 ) ;
#72 = DIRECTION ( 'NONE',  ( 4.275831445896958607E-31, 1.000000000000000000, 1.224646799147353207E-16 ) ) ;
#73 = PERSON_AND_ORGANIZATION ( #149, #179 ) ;
#74 = PERSON_AND_ORGANIZATION_ROLE ( 'creator' ) ;
#75 = CIRCLE ( 'NONE', #45, 1.250000000000000000 ) ;
#76 = ORIENTED_EDGE ( 'NONE', *, *, #132, .F. ) ;
#77 = CARTESIAN_POINT ( 'NONE',  ( 1.106799584413273463E-13, -3.882130353297110981E-15, 31.70000000000000639 ) ) ;
#78 = AXIS2_PLACEMENT_3D ( 'NONE', #24, #199, #72 ) ;
#79 = ADVANCED_FACE ( 'NONE', ( #148 ), #34, .T. ) ;
#80 = CIRCLE ( 'NONE', #171, 1.249999999999999778 ) ;
#81 = LOCAL_TIME ( 16, 41, 54.00000000000000000, #10 ) ;
#82 = DIRECTION ( 'NONE',  ( -3.491481338843133355E-15, 1.224646799147353207E-16, -1.000000000000000000 ) ) ;
#83 = ORIENTED_EDGE ( 'NONE', *, *, #147, .F. ) ;
#84 = CARTESIAN_POINT ( 'NONE',  ( 0.0000000000000000000, 1.250000000000000000, 0.0000000000000000000 ) ) ;
#85 = ORIENTED_EDGE ( 'NONE', *, *, #185, .F. ) ;
#86 = DIRECTION ( 'NONE',  ( 0.0000000000000000000, 1.000000000000000000, 0.0000000000000000000 ) ) ;
#87 = LOCAL_TIME ( 16, 41, 54.00000000000000000, #22 ) ;
#88 = CALENDAR_DATE ( 2021, 15, 11 ) ;
#89 = CARTESIAN_POINT ( 'NONE',  ( 2.793185071074506684E-14, 9.373498641636594996E-33, 8.000000000000000000 ) ) ;
#90 = PRODUCT_DEFINITION_SHAPE ( 'NONE', 'NONE',  #198 ) ;
#91 = APPROVAL_DATE_TIME ( #196, #129 ) ;
#92 = PERSON_AND_ORGANIZATION_ROLE ( 'design_supplier' ) ;
#93 = CARTESIAN_POINT ( 'NONE',  ( 2.793185071074506684E-14, 9.373498641636594996E-33, 8.000000000000000000 ) ) ;
#94 = DATE_AND_TIME ( #125, #97 ) ;
#95 = FACE_OUTER_BOUND ( 'NONE', #200, .T. ) ;
#96 = AXIS2_PLACEMENT_3D ( 'NONE', #93, #146, #158 ) ;
#97 = LOCAL_TIME ( 16, 41, 54.00000000000000000, #42 ) ;
#98 = CC_DESIGN_PERSON_AND_ORGANIZATION_ASSIGNMENT ( #197, #92, ( #43 ) ) ;
#99 = CARTESIAN_POINT ( 'NONE',  ( 1.117274028429802674E-13, -3.918869757271530263E-15, 32.00000000000000000 ) ) ;
#100 = UNCERTAINTY_MEASURE_WITH_UNIT (LENGTH_MEASURE( 1.000000000000000082E-05 ), #117, 'distance_accuracy_value', 'NONE');
#101 = CC_DESIGN_APPROVAL ( #180, ( #102 ) ) ;
#102 = SECURITY_CLASSIFICATION ( '', '', #58 ) ;
#103 = DIRECTION ( 'NONE',  ( 0.0000000000000000000, 1.000000000000000000, 0.0000000000000000000 ) ) ;
#104 = APPROVAL_ROLE ( '' ) ;
#105 = CARTESIAN_POINT ( 'NONE',  ( 2.793185071074506684E-14, 1.249999999999998890, 8.000000000000000000 ) ) ;
#106 = AXIS2_PLACEMENT_3D ( 'NONE', #183, #18, #2 ) ;
#107 = VERTEX_POINT ( 'NONE', #151 ) ;
#108 = EDGE_LOOP ( 'NONE', ( #85 ) ) ;
#109 = EDGE_LOOP ( 'NONE', ( #144 ) ) ;
#110 = CIRCLE ( 'NONE', #134, 1.250000000000000000 ) ;
#111 = APPROVAL_STATUS ( 'not_yet_approved' ) ;
#112 = DIRECTION ( 'NONE',  ( -3.491481338843133355E-15, 1.224646799147353207E-16, -1.000000000000000000 ) ) ;
#113 = DIRECTION ( 'NONE',  ( 0.0000000000000000000, 1.000000000000000000, 0.0000000000000000000 ) ) ;
#114 = DIRECTION ( 'NONE',  ( 4.275831445896958607E-31, 1.000000000000000000, 1.224646799147353207E-16 ) ) ;
#115 = PERSON_AND_ORGANIZATION ( #149, #179 ) ;
#116 = EDGE_CURVE ( 'NONE', #135, #135, #203, .T. ) ;
#117 =( LENGTH_UNIT ( ) NAMED_UNIT ( * ) SI_UNIT ( .MILLI., .METRE. ) );
#118 = DIRECTION ( 'NONE',  ( 4.275831445896958607E-31, 1.000000000000000000, 1.224646799147353207E-16 ) ) ;
#119 = PERSON_AND_ORGANIZATION ( #149, #179 ) ;
#120 = CLOSED_SHELL ( 'NONE', ( #44, #65, #166, #193 ) ) ;
#121 = PERSON_AND_ORGANIZATION_ROLE ( 'classification_officer' ) ;
#122 = ORIENTED_EDGE ( 'NONE', *, *, #147, .T. ) ;
#123 = COORDINATED_UNIVERSAL_TIME_OFFSET ( 1, 0, .AHEAD. ) ;
#124 = PLANE ( 'NONE',  #62 ) ;
#125 = CALENDAR_DATE ( 2021, 15, 11 ) ;
#126 = APPROVAL_DATE_TIME ( #32, #180 ) ;
#127 = EDGE_LOOP ( 'NONE', ( #122 ) ) ;
#128 = DATE_TIME_ROLE ( 'creation_date' ) ;
#129 = APPROVAL ( #175, 'UNSPECIFIED' ) ;
#130 = CARTESIAN_POINT ( 'NONE',  ( 0.0000000000000000000, 0.0000000000000000000, 0.0000000000000000000 ) ) ;
#131 = DIRECTION ( 'NONE',  ( -4.275831445896958607E-31, -1.000000000000000000, -1.224646799147353207E-16 ) ) ;
#132 = EDGE_CURVE ( 'NONE', #107, #107, #80, .T. ) ;
#133 = PERSON_AND_ORGANIZATION ( #149, #179 ) ;
#134 = AXIS2_PLACEMENT_3D ( 'NONE', #47, #82, #103 ) ;
#135 = VERTEX_POINT ( 'NONE', #139 ) ;
#136 = FACE_BOUND ( 'NONE', #55, .T. ) ;
#137 = VERTEX_POINT ( 'NONE', #5 ) ;
#138 = CONICAL_SURFACE ( 'NONE', #68, 1.249999999999999778, 0.7853981633974482790 ) ;
#139 = CARTESIAN_POINT ( 'NONE',  ( 1.117274028429802674E-13, 0.9500000000000011768, 32.00000000000000000 ) ) ;
#140 = APPROVAL_PERSON_ORGANIZATION ( #115, #19, #104 ) ;
#141 = SHAPE_DEFINITION_REPRESENTATION ( #90, #29 ) ;
#142 = EDGE_LOOP ( 'NONE', ( #6 ) ) ;
#143 = PERSON_AND_ORGANIZATION ( #149, #179 ) ;
#144 = ORIENTED_EDGE ( 'NONE', *, *, #13, .F. ) ;
#145 = APPROVAL_PERSON_ORGANIZATION ( #39, #180, #8 ) ;
#146 = DIRECTION ( 'NONE',  ( 3.491481338843133355E-15, -1.224646799147353207E-16, 1.000000000000000000 ) ) ;
#147 = EDGE_CURVE ( 'NONE', #194, #194, #110, .T. ) ;
#148 = FACE_OUTER_BOUND ( 'NONE', #142, .T. ) ;
#149 = PERSON ( 'UNSPECIFIED', 'UNSPECIFIED', 'UNSPECIFIED', ('UNSPECIFIED'), ('UNSPECIFIED'), ('UNSPECIFIED') ) ;
#150 = CC_DESIGN_PERSON_AND_ORGANIZATION_ASSIGNMENT ( #133, #190, ( #40 ) ) ;
#151 = CARTESIAN_POINT ( 'NONE',  ( 1.106799584413273463E-13, 1.249999999999996003, 31.70000000000000639 ) ) ;
#152 = CC_DESIGN_DATE_AND_TIME_ASSIGNMENT ( #94, #128, ( #198 ) ) ;
#153 = VERTEX_POINT ( 'NONE', #84 ) ;
#154 = DATE_AND_TIME ( #88, #87 ) ;
#155 =( NAMED_UNIT ( * ) SI_UNIT ( $, .STERADIAN. ) SOLID_ANGLE_UNIT ( ) );
#156 = CIRCLE ( 'NONE', #78, 1.250000000000000000 ) ;
#157 = EDGE_LOOP ( 'NONE', ( #76 ) ) ;
#158 = DIRECTION ( 'NONE',  ( -4.275831445896958607E-31, -1.000000000000000000, -1.224646799147353207E-16 ) ) ;
#159 = DIRECTION ( 'NONE',  ( 4.275831445896958607E-31, 1.000000000000000000, 1.224646799147353207E-16 ) ) ;
#160 = DIRECTION ( 'NONE',  ( -3.491481338843133355E-15, 1.224646799147353207E-16, -1.000000000000000000 ) ) ;
#161 = APPLICATION_CONTEXT ( 'configuration controlled 3d designs of mechanical parts and assemblies' ) ;
#162 = AXIS2_PLACEMENT_3D ( 'NONE', #66, #49, #118 ) ;
#163 = DESIGN_CONTEXT ( 'detailed design', #182, 'design' ) ;
#164 = PRODUCT_RELATED_PRODUCT_CATEGORY ( 'detail', '', ( #40 ) ) ;
#165 = DIRECTION ( 'NONE',  ( -3.491481338843133355E-15, 1.224646799147353207E-16, -1.000000000000000000 ) ) ;
#166 = ADVANCED_FACE ( 'NONE', ( #136, #168 ), #138, .T. ) ;
#167 = EDGE_LOOP ( 'NONE', ( #184 ) ) ;
#168 = FACE_OUTER_BOUND ( 'NONE', #157, .T. ) ;
#169 = MANIFOLD_SOLID_BREP ( 'Corps-Déplacer/Copier1[1]', #120 ) ;
#170 = DATE_AND_TIME ( #71, #21 ) ;
#171 = AXIS2_PLACEMENT_3D ( 'NONE', #77, #165, #113 ) ;
#172 = CALENDAR_DATE ( 2021, 15, 11 ) ;
#173 = DIRECTION ( 'NONE',  ( 3.491481338843133355E-15, -1.224646799147353207E-16, 1.000000000000000000 ) ) ;
#174 = PLANE ( 'NONE',  #96 ) ;
#175 = APPROVAL_STATUS ( 'not_yet_approved' ) ;
#176 = FACE_OUTER_BOUND ( 'NONE', #108, .T. ) ;
#177 = ORIENTED_EDGE ( 'NONE', *, *, #116, .F. ) ;
#178 = AXIS2_PLACEMENT_3D ( 'NONE', #99, #160, #14 ) ;
#179 = ORGANIZATION ( 'UNSPECIFIED', 'UNSPECIFIED', '' ) ;
#180 = APPROVAL ( #111, 'UNSPECIFIED' ) ;
#181 = LOCAL_TIME ( 16, 41, 54.00000000000000000, #53 ) ;
#182 = APPLICATION_CONTEXT ( 'configuration controlled 3d designs of mechanical parts and assemblies' ) ;
#183 = CARTESIAN_POINT ( 'NONE',  ( 0.0000000000000000000, 0.0000000000000000000, 0.0000000000000000000 ) ) ;
#184 = ORIENTED_EDGE ( 'NONE', *, *, #132, .T. ) ;
#185 = EDGE_CURVE ( 'NONE', #137, #137, #75, .T. ) ;
#186 = CC_DESIGN_APPROVAL ( #129, ( #43 ) ) ;
#187 = ORIENTED_EDGE ( 'NONE', *, *, #116, .T. ) ;
#188 = DIRECTION ( 'NONE',  ( -3.491481338843133355E-15, 1.224646799147353207E-16, -1.000000000000000000 ) ) ;
#189 = EDGE_LOOP ( 'NONE', ( #83 ) ) ;
#190 = PERSON_AND_ORGANIZATION_ROLE ( 'design_owner' ) ;
#191 = AXIS2_PLACEMENT_3D ( 'NONE', #59, #188, #159 ) ;
#192 = DIRECTION ( 'NONE',  ( 0.0000000000000000000, 1.000000000000000000, 0.0000000000000000000 ) ) ;
#193 = ADVANCED_FACE ( 'NONE', ( #23 ), #67, .F. ) ;
#194 = VERTEX_POINT ( 'NONE', #105 ) ;
#195 = CARTESIAN_POINT ( 'NONE',  ( 1.106799584413273463E-13, -3.882130353297110981E-15, 31.70000000000000639 ) ) ;
#196 = DATE_AND_TIME ( #172, #181 ) ;
#197 = PERSON_AND_ORGANIZATION ( #149, #179 ) ;
#198 = PRODUCT_DEFINITION ( 'UNKNOWN', '', #43, #163 ) ;
#199 = DIRECTION ( 'NONE',  ( -3.491481338843133355E-15, 1.224646799147353207E-16, -1.000000000000000000 ) ) ;
#200 = EDGE_LOOP ( 'NONE', ( #56 ) ) ;
#201 = PERSON_AND_ORGANIZATION ( #149, #179 ) ;
#202 = FACE_OUTER_BOUND ( 'NONE', #189, .T. ) ;
#203 = CIRCLE ( 'NONE', #178, 0.9500000000000050626 ) ;
ENDSEC;
END-ISO-10303-21;
