ISO-10303-21;
HEADER;
FILE_DESCRIPTION (( 'STEP AP203' ),
    '1' );
FILE_NAME ('57118.step',
    '2021-11-15T15:41:54',
    ( '' ),
    ( '' ),
    'SwSTEP 2.0',
    'SolidWorks 2019',
    '' );
FILE_SCHEMA (( 'CONFIG_CONTROL_DESIGN' ));
ENDSEC;

DATA;
#1 = CARTESIAN_POINT ( 'NONE',  ( 0.0000000000000000000, 0.0000000000000000000, 0.0000000000000000000 ) ) ;
#2 = CC_DESIGN_DATE_AND_TIME_ASSIGNMENT ( #47, #118, ( #170 ) ) ;
#3 = DIRECTION ( 'NONE',  ( -3.491481338843133355E-15, 1.224646799147353207E-16, -1.000000000000000000 ) ) ;
#4 = APPROVAL_PERSON_ORGANIZATION ( #56, #128, #186 ) ;
#5 = EDGE_CURVE ( 'NONE', #182, #182, #26, .T. ) ;
#6 = CALENDAR_DATE ( 2021, 15, 11 ) ;
#7 = PERSON_AND_ORGANIZATION_ROLE ( 'creator' ) ;
#8 = APPROVAL_DATE_TIME ( #156, #30 ) ;
#9 = APPROVAL_STATUS ( 'not_yet_approved' ) ;
#10 = CC_DESIGN_SECURITY_CLASSIFICATION ( #102, ( #153 ) ) ;
#11 = DIRECTION ( 'NONE',  ( 4.275831445896958607E-31, 1.000000000000000000, 1.224646799147353207E-16 ) ) ;
#12 = COORDINATED_UNIVERSAL_TIME_OFFSET ( 1, 0, .AHEAD. ) ;
#13 = AXIS2_PLACEMENT_3D ( 'NONE', #100, #171, #152 ) ;
#14 = DIRECTION ( 'NONE',  ( -3.491481338843133355E-15, 1.224646799147353207E-16, -1.000000000000000000 ) ) ;
#15 = ORIENTED_EDGE ( 'NONE', *, *, #123, .F. ) ;
#16 = CC_DESIGN_PERSON_AND_ORGANIZATION_ASSIGNMENT ( #78, #7, ( #170 ) ) ;
#17 = MANIFOLD_SOLID_BREP ( 'Corps-Déplacer/Copier1[2]', #34 ) ;
#18 = PERSON_AND_ORGANIZATION ( #161, #46 ) ;
#19 = APPROVAL_DATE_TIME ( #49, #94 ) ;
#20 = COORDINATED_UNIVERSAL_TIME_OFFSET ( 1, 0, .AHEAD. ) ;
#21 = ADVANCED_FACE ( 'NONE', ( #65, #89 ), #142, .T. ) ;
#22 =( GEOMETRIC_REPRESENTATION_CONTEXT ( 3 ) GLOBAL_UNCERTAINTY_ASSIGNED_CONTEXT ( ( #60 ) ) GLOBAL_UNIT_ASSIGNED_CONTEXT ( ( #194, #134, #69 ) ) REPRESENTATION_CONTEXT ( 'NONE', 'WORKASPACE' ) );
#23 = CALENDAR_DATE ( 2021, 15, 11 ) ;
#24 = DIRECTION ( 'NONE',  ( 0.0000000000000000000, 1.000000000000000000, 0.0000000000000000000 ) ) ;
#25 = DIRECTION ( 'NONE',  ( -3.491481338843133355E-15, 1.224646799147353207E-16, -1.000000000000000000 ) ) ;
#26 = CIRCLE ( 'NONE', #157, 1.000000000000000222 ) ;
#27 = DIRECTION ( 'NONE',  ( -4.275831445896958607E-31, -1.000000000000000000, -1.224646799147353207E-16 ) ) ;
#28 = EDGE_LOOP ( 'NONE', ( #129 ) ) ;
#29 = DIRECTION ( 'NONE',  ( -3.491481338843133355E-15, 1.224646799147353207E-16, -1.000000000000000000 ) ) ;
#30 = APPROVAL ( #9, 'UNSPECIFIED' ) ;
#31 = EDGE_LOOP ( 'NONE', ( #147 ) ) ;
#32 = DIRECTION ( 'NONE',  ( -3.491481338843133355E-15, 1.224646799147353207E-16, -1.000000000000000000 ) ) ;
#33 = DIRECTION ( 'NONE',  ( 3.491481338843133355E-15, -1.224646799147353207E-16, 1.000000000000000000 ) ) ;
#34 = CLOSED_SHELL ( 'NONE', ( #144, #21, #108 ) ) ;
#35 = DIRECTION ( 'NONE',  ( -4.275831445896958607E-31, -1.000000000000000000, -1.224646799147353207E-16 ) ) ;
#36 = DATE_AND_TIME ( #141, #197 ) ;
#37 = ORIENTED_EDGE ( 'NONE', *, *, #5, .T. ) ;
#38 = DIRECTION ( 'NONE',  ( -3.491481338843133355E-15, 1.224646799147353207E-16, -1.000000000000000000 ) ) ;
#39 = APPROVAL_PERSON_ORGANIZATION ( #169, #94, #199 ) ;
#40 = DIRECTION ( 'NONE',  ( 4.275831445896958607E-31, 1.000000000000000000, 1.224646799147353207E-16 ) ) ;
#41 = CARTESIAN_POINT ( 'NONE',  ( 1.117274028429802674E-13, 0.7999999999999933831, 32.00000000000000000 ) ) ;
#42 = EDGE_LOOP ( 'NONE', ( #192 ) ) ;
#43 = CIRCLE ( 'NONE', #68, 0.9999999999999995559 ) ;
#44 = PRODUCT_DEFINITION_SHAPE ( 'NONE', 'NONE',  #170 ) ;
#45 = DATE_AND_TIME ( #172, #133 ) ;
#46 = ORGANIZATION ( 'UNSPECIFIED', 'UNSPECIFIED', '' ) ;
#47 = DATE_AND_TIME ( #136, #55 ) ;
#48 = PERSON_AND_ORGANIZATION ( #161, #46 ) ;
#49 = DATE_AND_TIME ( #6, #63 ) ;
#50 = CIRCLE ( 'NONE', #80, 1.000000000000000222 ) ;
#51 = FACE_OUTER_BOUND ( 'NONE', #31, .T. ) ;
#52 = DIRECTION ( 'NONE',  ( 4.275831445896958607E-31, 1.000000000000000000, 1.224646799147353207E-16 ) ) ;
#53 = CARTESIAN_POINT ( 'NONE',  ( -2.137915722948478865E-31, 7.498798913309288039E-33, -6.123233995736766036E-17 ) ) ;
#54 = APPLICATION_PROTOCOL_DEFINITION ( 'international standard', 'config_control_design', 1994, #97 ) ;
#55 = LOCAL_TIME ( 16, 41, 54.00000000000000000, #121 ) ;
#56 = PERSON_AND_ORGANIZATION ( #161, #46 ) ;
#57 = CC_DESIGN_PERSON_AND_ORGANIZATION_ASSIGNMENT ( #18, #185, ( #70 ) ) ;
#58 = PERSON_AND_ORGANIZATION ( #161, #46 ) ;
#59 = CYLINDRICAL_SURFACE ( 'NONE', #149, 1.000000000000000000 ) ;
#60 = UNCERTAINTY_MEASURE_WITH_UNIT (LENGTH_MEASURE( 1.000000000000000082E-05 ), #194, 'distance_accuracy_value', 'NONE');
#61 = SHAPE_DEFINITION_REPRESENTATION ( #44, #67 ) ;
#62 = AXIS2_PLACEMENT_3D ( 'NONE', #53, #29, #40 ) ;
#63 = LOCAL_TIME ( 16, 41, 54.00000000000000000, #20 ) ;
#64 = ADVANCED_FACE ( 'NONE', ( #137, #81 ), #59, .T. ) ;
#65 = FACE_OUTER_BOUND ( 'NONE', #42, .T. ) ;
#66 = CARTESIAN_POINT ( 'NONE',  ( 0.0000000000000000000, 0.0000000000000000000, 0.0000000000000000000 ) ) ;
#67 = ADVANCED_BREP_SHAPE_REPRESENTATION ( '57118', ( #77, #17, #13 ), #22 ) ;
#68 = AXIS2_PLACEMENT_3D ( 'NONE', #113, #3, #91 ) ;
#69 =( NAMED_UNIT ( * ) SI_UNIT ( $, .STERADIAN. ) SOLID_ANGLE_UNIT ( ) );
#70 = PRODUCT ( '57118', '57118', '', ( #151 ) ) ;
#71 = CARTESIAN_POINT ( 'NONE',  ( 8.552847072295026068E-47, 1.000000000000000000, 0.0000000000000000000 ) ) ;
#72 = ORIENTED_EDGE ( 'NONE', *, *, #5, .F. ) ;
#73 = CARTESIAN_POINT ( 'NONE',  ( 2.793185071074506684E-14, 7.498798913309277092E-33, 8.000000000000000000 ) ) ;
#74 = CARTESIAN_POINT ( 'NONE',  ( 2.793185071074506684E-14, 0.9999999999999991118, 8.000000000000000000 ) ) ;
#75 = APPROVAL_STATUS ( 'not_yet_approved' ) ;
#76 = ADVANCED_FACE ( 'NONE', ( #112, #51 ), #162, .T. ) ;
#77 = MANIFOLD_SOLID_BREP ( 'Corps-Déplacer/Copier1[1]', #122 ) ;
#78 = PERSON_AND_ORGANIZATION ( #161, #46 ) ;
#79 = APPROVAL_DATE_TIME ( #45, #128 ) ;
#80 = AXIS2_PLACEMENT_3D ( 'NONE', #173, #124, #201 ) ;
#81 = FACE_OUTER_BOUND ( 'NONE', #191, .T. ) ;
#82 = DATE_TIME_ROLE ( 'classification_date' ) ;
#83 = CC_DESIGN_APPROVAL ( #30, ( #102 ) ) ;
#84 = PLANE ( 'NONE',  #105 ) ;
#85 = FACE_OUTER_BOUND ( 'NONE', #28, .T. ) ;
#86 = CARTESIAN_POINT ( 'NONE',  ( -4.275831445896957731E-31, 1.499759782661857608E-32, -1.224646799147353207E-16 ) ) ;
#87 = ADVANCED_FACE ( 'NONE', ( #187 ), #84, .F. ) ;
#88 = ORIENTED_EDGE ( 'NONE', *, *, #140, .T. ) ;
#89 = FACE_OUTER_BOUND ( 'NONE', #165, .T. ) ;
#90 = CC_DESIGN_PERSON_AND_ORGANIZATION_ASSIGNMENT ( #58, #116, ( #153 ) ) ;
#91 = DIRECTION ( 'NONE',  ( 0.0000000000000000000, 1.000000000000000000, 0.0000000000000000000 ) ) ;
#92 = DIRECTION ( 'NONE',  ( 3.491481338843133355E-15, -1.224646799147353207E-16, 1.000000000000000000 ) ) ;
#93 = ORIENTED_EDGE ( 'NONE', *, *, #140, .F. ) ;
#94 = APPROVAL ( #75, 'UNSPECIFIED' ) ;
#95 = AXIS2_PLACEMENT_3D ( 'NONE', #73, #92, #27 ) ;
#96 = CC_DESIGN_APPROVAL ( #94, ( #170 ) ) ;
#97 = APPLICATION_CONTEXT ( 'configuration controlled 3d designs of mechanical parts and assemblies' ) ;
#98 = PLANE ( 'NONE',  #95 ) ;
#99 = EDGE_CURVE ( 'NONE', #132, #132, #166, .T. ) ;
#100 = CARTESIAN_POINT ( 'NONE',  ( 0.0000000000000000000, 0.0000000000000000000, 0.0000000000000000000 ) ) ;
#101 = AXIS2_PLACEMENT_3D ( 'NONE', #1, #38, #110 ) ;
#102 = SECURITY_CLASSIFICATION ( '', '', #200 ) ;
#103 = CARTESIAN_POINT ( 'NONE',  ( 2.793185071074506684E-14, 7.498798913309277092E-33, 8.000000000000000000 ) ) ;
#104 = COORDINATED_UNIVERSAL_TIME_OFFSET ( 1, 0, .AHEAD. ) ;
#105 = AXIS2_PLACEMENT_3D ( 'NONE', #158, #14, #126 ) ;
#106 = LOCAL_TIME ( 16, 41, 54.00000000000000000, #12 ) ;
#107 = APPROVAL_PERSON_ORGANIZATION ( #160, #30, #109 ) ;
#108 = ADVANCED_FACE ( 'NONE', ( #139 ), #189, .T. ) ;
#109 = APPROVAL_ROLE ( '' ) ;
#110 = DIRECTION ( 'NONE',  ( 4.275831445896958607E-31, 1.000000000000000000, 1.224646799147353207E-16 ) ) ;
#111 = CC_DESIGN_PERSON_AND_ORGANIZATION_ASSIGNMENT ( #150, #138, ( #153 ) ) ;
#112 = FACE_BOUND ( 'NONE', #127, .T. ) ;
#113 = CARTESIAN_POINT ( 'NONE',  ( 1.110291065752116407E-13, -3.894376821288583549E-15, 31.80000000000000071 ) ) ;
#114 = AXIS2_PLACEMENT_3D ( 'NONE', #190, #177, #24 ) ;
#115 = CARTESIAN_POINT ( 'NONE',  ( 2.793185071074506684E-14, 0.9999999999999991118, 8.000000000000000000 ) ) ;
#116 = PERSON_AND_ORGANIZATION_ROLE ( 'creator' ) ;
#117 = AXIS2_PLACEMENT_3D ( 'NONE', #86, #32, #11 ) ;
#118 = DATE_TIME_ROLE ( 'creation_date' ) ;
#119 = DIRECTION ( 'NONE',  ( 0.0000000000000000000, 1.000000000000000000, 0.0000000000000000000 ) ) ;
#120 = PERSON_AND_ORGANIZATION_ROLE ( 'classification_officer' ) ;
#121 = COORDINATED_UNIVERSAL_TIME_OFFSET ( 1, 0, .AHEAD. ) ;
#122 = CLOSED_SHELL ( 'NONE', ( #183, #64, #76, #87 ) ) ;
#123 = EDGE_CURVE ( 'NONE', #146, #146, #50, .T. ) ;
#124 = DIRECTION ( 'NONE',  ( -3.491481338843133355E-15, 1.224646799147353207E-16, -1.000000000000000000 ) ) ;
#125 = ORIENTED_EDGE ( 'NONE', *, *, #203, .T. ) ;
#126 = DIRECTION ( 'NONE',  ( 4.275831445896958607E-31, 1.000000000000000000, 1.224646799147353207E-16 ) ) ;
#127 = EDGE_LOOP ( 'NONE', ( #88 ) ) ;
#128 = APPROVAL ( #198, 'UNSPECIFIED' ) ;
#129 = ORIENTED_EDGE ( 'NONE', *, *, #99, .T. ) ;
#130 = CARTESIAN_POINT ( 'NONE',  ( 1.110291065752116407E-13, 0.9999999999999956701, 31.80000000000000071 ) ) ;
#131 = DIRECTION ( 'NONE',  ( -3.491481338843133355E-15, 1.224646799147353207E-16, -1.000000000000000000 ) ) ;
#132 = VERTEX_POINT ( 'NONE', #71 ) ;
#133 = LOCAL_TIME ( 16, 41, 54.00000000000000000, #174 ) ;
#134 =( NAMED_UNIT ( * ) PLANE_ANGLE_UNIT ( ) SI_UNIT ( $, .RADIAN. ) );
#135 = APPLICATION_PROTOCOL_DEFINITION ( 'international standard', 'config_control_design', 1994, #145 ) ;
#136 = CALENDAR_DATE ( 2021, 15, 11 ) ;
#137 = FACE_OUTER_BOUND ( 'NONE', #163, .T. ) ;
#138 = PERSON_AND_ORGANIZATION_ROLE ( 'design_supplier' ) ;
#139 = FACE_OUTER_BOUND ( 'NONE', #167, .T. ) ;
#140 = EDGE_CURVE ( 'NONE', #164, #164, #184, .T. ) ;
#141 = CALENDAR_DATE ( 2021, 15, 11 ) ;
#142 = CYLINDRICAL_SURFACE ( 'NONE', #101, 1.000000000000000000 ) ;
#143 = EDGE_LOOP ( 'NONE', ( #37 ) ) ;
#144 = ADVANCED_FACE ( 'NONE', ( #85 ), #159, .T. ) ;
#145 = APPLICATION_CONTEXT ( 'configuration controlled 3d designs of mechanical parts and assemblies' ) ;
#146 = VERTEX_POINT ( 'NONE', #74 ) ;
#147 = ORIENTED_EDGE ( 'NONE', *, *, #203, .F. ) ;
#148 = VERTEX_POINT ( 'NONE', #130 ) ;
#149 = AXIS2_PLACEMENT_3D ( 'NONE', #66, #154, #52 ) ;
#150 = PERSON_AND_ORGANIZATION ( #161, #46 ) ;
#151 = MECHANICAL_CONTEXT ( 'NONE', #97, 'mechanical' ) ;
#152 = DIRECTION ( 'NONE',  ( 1.000000000000000000, 0.0000000000000000000, 0.0000000000000000000 ) ) ;
#153 = PRODUCT_DEFINITION_FORMATION_WITH_SPECIFIED_SOURCE ( 'ANY', '', #70, .NOT_KNOWN. ) ;
#154 = DIRECTION ( 'NONE',  ( -3.491481338843133355E-15, 1.224646799147353207E-16, -1.000000000000000000 ) ) ;
#155 = DESIGN_CONTEXT ( 'detailed design', #145, 'design' ) ;
#156 = DATE_AND_TIME ( #23, #106 ) ;
#157 = AXIS2_PLACEMENT_3D ( 'NONE', #195, #131, #179 ) ;
#158 = CARTESIAN_POINT ( 'NONE',  ( 1.117274028429802674E-13, 5.999039130647352429E-33, 32.00000000000000000 ) ) ;
#159 = PLANE ( 'NONE',  #62 ) ;
#160 = PERSON_AND_ORGANIZATION ( #161, #46 ) ;
#161 = PERSON ( 'UNSPECIFIED', 'UNSPECIFIED', 'UNSPECIFIED', ('UNSPECIFIED'), ('UNSPECIFIED'), ('UNSPECIFIED') ) ;
#162 = CONICAL_SURFACE ( 'NONE', #202, 0.9999999999999995559, 0.7853981633974569387 ) ;
#163 = EDGE_LOOP ( 'NONE', ( #125 ) ) ;
#164 = VERTEX_POINT ( 'NONE', #41 ) ;
#165 = EDGE_LOOP ( 'NONE', ( #180 ) ) ;
#166 = CIRCLE ( 'NONE', #117, 1.000000000000000000 ) ;
#167 = EDGE_LOOP ( 'NONE', ( #15 ) ) ;
#168 = CC_DESIGN_APPROVAL ( #128, ( #153 ) ) ;
#169 = PERSON_AND_ORGANIZATION ( #161, #46 ) ;
#170 = PRODUCT_DEFINITION ( 'UNKNOWN', '', #153, #155 ) ;
#171 = DIRECTION ( 'NONE',  ( 0.0000000000000000000, 0.0000000000000000000, 1.000000000000000000 ) ) ;
#172 = CALENDAR_DATE ( 2021, 15, 11 ) ;
#173 = CARTESIAN_POINT ( 'NONE',  ( 2.793185071074506684E-14, -9.797174393178825657E-16, 8.000000000000000000 ) ) ;
#174 = COORDINATED_UNIVERSAL_TIME_OFFSET ( 1, 0, .AHEAD. ) ;
#175 = AXIS2_PLACEMENT_3D ( 'NONE', #103, #33, #35 ) ;
#176 = CARTESIAN_POINT ( 'NONE',  ( 1.110291065752116407E-13, -3.894376821288583549E-15, 31.80000000000000071 ) ) ;
#177 = DIRECTION ( 'NONE',  ( -3.491481338843133355E-15, 1.224646799147353207E-16, -1.000000000000000000 ) ) ;
#178 = EDGE_LOOP ( 'NONE', ( #93 ) ) ;
#179 = DIRECTION ( 'NONE',  ( 0.0000000000000000000, 1.000000000000000000, 0.0000000000000000000 ) ) ;
#180 = ORIENTED_EDGE ( 'NONE', *, *, #99, .F. ) ;
#181 = PRODUCT_RELATED_PRODUCT_CATEGORY ( 'detail', '', ( #70 ) ) ;
#182 = VERTEX_POINT ( 'NONE', #115 ) ;
#183 = ADVANCED_FACE ( 'NONE', ( #196 ), #98, .F. ) ;
#184 = CIRCLE ( 'NONE', #114, 0.7999999999999973799 ) ;
#185 = PERSON_AND_ORGANIZATION_ROLE ( 'design_owner' ) ;
#186 = APPROVAL_ROLE ( '' ) ;
#187 = FACE_OUTER_BOUND ( 'NONE', #178, .T. ) ;
#188 = CC_DESIGN_PERSON_AND_ORGANIZATION_ASSIGNMENT ( #48, #120, ( #102 ) ) ;
#189 = PLANE ( 'NONE',  #175 ) ;
#190 = CARTESIAN_POINT ( 'NONE',  ( 1.117274028429802674E-13, -3.918869757271530263E-15, 32.00000000000000000 ) ) ;
#191 = EDGE_LOOP ( 'NONE', ( #72 ) ) ;
#192 = ORIENTED_EDGE ( 'NONE', *, *, #123, .T. ) ;
#193 = CC_DESIGN_DATE_AND_TIME_ASSIGNMENT ( #36, #82, ( #102 ) ) ;
#194 =( LENGTH_UNIT ( ) NAMED_UNIT ( * ) SI_UNIT ( .MILLI., .METRE. ) );
#195 = CARTESIAN_POINT ( 'NONE',  ( 2.793185071074506684E-14, -9.797174393178825657E-16, 8.000000000000000000 ) ) ;
#196 = FACE_OUTER_BOUND ( 'NONE', #143, .T. ) ;
#197 = LOCAL_TIME ( 16, 41, 54.00000000000000000, #104 ) ;
#198 = APPROVAL_STATUS ( 'not_yet_approved' ) ;
#199 = APPROVAL_ROLE ( '' ) ;
#200 = SECURITY_CLASSIFICATION_LEVEL ( 'unclassified' ) ;
#201 = DIRECTION ( 'NONE',  ( 0.0000000000000000000, 1.000000000000000000, 0.0000000000000000000 ) ) ;
#202 = AXIS2_PLACEMENT_3D ( 'NONE', #176, #25, #119 ) ;
#203 = EDGE_CURVE ( 'NONE', #148, #148, #43, .T. ) ;
ENDSEC;
END-ISO-10303-21;
