ISO-10303-21;
HEADER;
FILE_DESCRIPTION (( 'STEP AP203' ),
    '1' );
FILE_NAME ('57117.step',
    '2021-11-12T10:35:00',
    ( '' ),
    ( '' ),
    'SwSTEP 2.0',
    'SolidWorks 2019',
    '' );
FILE_SCHEMA (( 'CONFIG_CONTROL_DESIGN' ));
ENDSEC;

DATA;
#1 = APPROVAL ( #7, 'UNSPECIFIED' ) ;
#2 = COORDINATED_UNIVERSAL_TIME_OFFSET ( 1, 0, .AHEAD. ) ;
#3 = ORIENTED_EDGE ( 'NONE', *, *, #198, .F. ) ;
#4 = PERSON_AND_ORGANIZATION_ROLE ( 'creator' ) ;
#5 = EDGE_LOOP ( 'NONE', ( #66 ) ) ;
#6 = ORIENTED_EDGE ( 'NONE', *, *, #33, .F. ) ;
#7 = APPROVAL_STATUS ( 'not_yet_approved' ) ;
#8 = DIRECTION ( 'NONE',  ( 0.0000000000000000000, 1.000000000000000000, 0.0000000000000000000 ) ) ;
#9 = ORGANIZATION ( 'UNSPECIFIED', 'UNSPECIFIED', '' ) ;
#10 = VERTEX_POINT ( 'NONE', #60 ) ;
#11 = DIRECTION ( 'NONE',  ( 4.275831445896958607E-31, 1.000000000000000000, 1.224646799147353207E-16 ) ) ;
#12 = DIRECTION ( 'NONE',  ( 0.0000000000000000000, 1.000000000000000000, 0.0000000000000000000 ) ) ;
#13 = DIRECTION ( 'NONE',  ( -3.491481338843133355E-15, 1.224646799147353207E-16, -1.000000000000000000 ) ) ;
#14 = PLANE ( 'NONE',  #185 ) ;
#15 = DIRECTION ( 'NONE',  ( 1.000000000000000000, 0.0000000000000000000, 0.0000000000000000000 ) ) ;
#16 = ORIENTED_EDGE ( 'NONE', *, *, #178, .F. ) ;
#17 = LOCAL_TIME ( 11, 35, 0.0000000000000000000, #164 ) ;
#18 = CIRCLE ( 'NONE', #200, 10.00000000000000000 ) ;
#19 = EDGE_LOOP ( 'NONE', ( #3 ) ) ;
#20 = PERSON_AND_ORGANIZATION ( #52, #9 ) ;
#21 = EDGE_LOOP ( 'NONE', ( #78 ) ) ;
#22 = APPROVAL_DATE_TIME ( #160, #107 ) ;
#23 = ORIENTED_EDGE ( 'NONE', *, *, #33, .T. ) ;
#24 = DATE_TIME_ROLE ( 'classification_date' ) ;
#25 = DIRECTION ( 'NONE',  ( -3.491481338843133355E-15, 1.224646799147353207E-16, -1.000000000000000000 ) ) ;
#26 = CALENDAR_DATE ( 2021, 12, 11 ) ;
#27 = DATE_AND_TIME ( #175, #168 ) ;
#28 = CC_DESIGN_PERSON_AND_ORGANIZATION_ASSIGNMENT ( #98, #162, ( #45 ) ) ;
#29 = DIRECTION ( 'NONE',  ( 3.491481338843133355E-15, -1.224646799147353207E-16, 1.000000000000000000 ) ) ;
#30 = AXIS2_PLACEMENT_3D ( 'NONE', #103, #48, #195 ) ;
#31 = DIRECTION ( 'NONE',  ( -3.491481338843133355E-15, 1.224646799147353207E-16, -1.000000000000000000 ) ) ;
#32 = CARTESIAN_POINT ( 'NONE',  ( 1.396592535537253342E-13, 7.498798913309280376E-32, 40.00000000000000000 ) ) ;
#33 = EDGE_CURVE ( 'NONE', #135, #135, #38, .T. ) ;
#34 = FACE_BOUND ( 'NONE', #174, .T. ) ;
#35 = PLANE ( 'NONE',  #126 ) ;
#36 = PRODUCT_RELATED_PRODUCT_CATEGORY ( 'detail', '', ( #196 ) ) ;
#37 = APPROVAL_PERSON_ORGANIZATION ( #129, #157, #147 ) ;
#38 = CIRCLE ( 'NONE', #186, 9.499999999999996447 ) ;
#39 = DIRECTION ( 'NONE',  ( -3.491481338843133355E-15, 1.224646799147353207E-16, -1.000000000000000000 ) ) ;
#40 = COORDINATED_UNIVERSAL_TIME_OFFSET ( 1, 0, .AHEAD. ) ;
#41 = PERSON_AND_ORGANIZATION ( #52, #9 ) ;
#42 = FACE_OUTER_BOUND ( 'NONE', #43, .T. ) ;
#43 = EDGE_LOOP ( 'NONE', ( #141 ) ) ;
#44 = CARTESIAN_POINT ( 'NONE',  ( 1.396592535537253342E-13, 9.999999999999994671, 40.00000000000000000 ) ) ;
#45 = SECURITY_CLASSIFICATION ( '', '', #131 ) ;
#46 = DIRECTION ( 'NONE',  ( -3.491481338843133355E-15, 1.224646799147353207E-16, -1.000000000000000000 ) ) ;
#47 = DESIGN_CONTEXT ( 'detailed design', #118, 'design' ) ;
#48 = DIRECTION ( 'NONE',  ( -3.491481338843133355E-15, 1.224646799147353207E-16, -1.000000000000000000 ) ) ;
#49 = CLOSED_SHELL ( 'NONE', ( #202, #108, #158, #142 ) ) ;
#50 = MECHANICAL_CONTEXT ( 'NONE', #86, 'mechanical' ) ;
#51 = CC_DESIGN_PERSON_AND_ORGANIZATION_ASSIGNMENT ( #41, #101, ( #79 ) ) ;
#52 = PERSON ( 'UNSPECIFIED', 'UNSPECIFIED', 'UNSPECIFIED', ('UNSPECIFIED'), ('UNSPECIFIED'), ('UNSPECIFIED') ) ;
#53 = DATE_TIME_ROLE ( 'creation_date' ) ;
#54 = CC_DESIGN_APPROVAL ( #1, ( #93 ) ) ;
#55 = COORDINATED_UNIVERSAL_TIME_OFFSET ( 1, 0, .AHEAD. ) ;
#56 = APPROVAL_ROLE ( '' ) ;
#57 = AXIS2_PLACEMENT_3D ( 'NONE', #74, #46, #12 ) ;
#58 = DIRECTION ( 'NONE',  ( 4.275831445896958607E-31, 1.000000000000000000, 1.224646799147353207E-16 ) ) ;
#59 = CARTESIAN_POINT ( 'NONE',  ( 1.396592535537253342E-13, -4.898587196589413026E-15, 40.00000000000000000 ) ) ;
#60 = CARTESIAN_POINT ( 'NONE',  ( 1.396592535537253342E-13, 9.999999999999994671, 40.00000000000000000 ) ) ;
#61 = LOCAL_TIME ( 11, 35, 0.0000000000000000000, #81 ) ;
#62 = DIRECTION ( 'NONE',  ( -3.491481338843133355E-15, 1.224646799147353207E-16, -1.000000000000000000 ) ) ;
#63 = PRODUCT_DEFINITION_SHAPE ( 'NONE', 'NONE',  #93 ) ;
#64 = CARTESIAN_POINT ( 'NONE',  ( 0.0000000000000000000, 10.00000000000000000, 0.0000000000000000000 ) ) ;
#65 = DIRECTION ( 'NONE',  ( 0.0000000000000000000, 0.0000000000000000000, 1.000000000000000000 ) ) ;
#66 = ORIENTED_EDGE ( 'NONE', *, *, #187, .T. ) ;
#67 = EDGE_LOOP ( 'NONE', ( #71 ) ) ;
#68 = DIRECTION ( 'NONE',  ( 4.275831445896958607E-31, 1.000000000000000000, 1.224646799147353207E-16 ) ) ;
#69 = PERSON_AND_ORGANIZATION ( #52, #9 ) ;
#70 = APPROVAL_STATUS ( 'not_yet_approved' ) ;
#71 = ORIENTED_EDGE ( 'NONE', *, *, #187, .F. ) ;
#72 = AXIS2_PLACEMENT_3D ( 'NONE', #155, #65, #15 ) ;
#73 = DIRECTION ( 'NONE',  ( 0.0000000000000000000, 1.000000000000000000, 0.0000000000000000000 ) ) ;
#74 = CARTESIAN_POINT ( 'NONE',  ( 1.396592535537253342E-13, -4.898587196589413026E-15, 40.00000000000000000 ) ) ;
#75 = DIRECTION ( 'NONE',  ( 0.0000000000000000000, 1.000000000000000000, 0.0000000000000000000 ) ) ;
#76 = DIRECTION ( 'NONE',  ( 0.0000000000000000000, 1.000000000000000000, 0.0000000000000000000 ) ) ;
#77 = DIRECTION ( 'NONE',  ( -3.491481338843133355E-15, 1.224646799147353207E-16, -1.000000000000000000 ) ) ;
#78 = ORIENTED_EDGE ( 'NONE', *, *, #198, .T. ) ;
#79 = PRODUCT_DEFINITION_FORMATION_WITH_SPECIFIED_SOURCE ( 'ANY', '', #196, .NOT_KNOWN. ) ;
#80 = AXIS2_PLACEMENT_3D ( 'NONE', #59, #13, #76 ) ;
#81 = COORDINATED_UNIVERSAL_TIME_OFFSET ( 1, 0, .AHEAD. ) ;
#82 = CALENDAR_DATE ( 2021, 12, 11 ) ;
#83 = CC_DESIGN_SECURITY_CLASSIFICATION ( #45, ( #79 ) ) ;
#84 = ADVANCED_FACE ( 'NONE', ( #192, #96 ), #109, .T. ) ;
#85 = APPROVAL_DATE_TIME ( #97, #1 ) ;
#86 = APPLICATION_CONTEXT ( 'configuration controlled 3d designs of mechanical parts and assemblies' ) ;
#87 = PERSON_AND_ORGANIZATION_ROLE ( 'design_owner' ) ;
#88 = CONICAL_SURFACE ( 'NONE', #181, 9.499999999999996447, 0.7853981633974482790 ) ;
#89 = PLANE ( 'NONE',  #30 ) ;
#90 = AXIS2_PLACEMENT_3D ( 'NONE', #102, #77, #11 ) ;
#91 = FACE_OUTER_BOUND ( 'NONE', #21, .T. ) ;
#92 = FACE_OUTER_BOUND ( 'NONE', #67, .T. ) ;
#93 = PRODUCT_DEFINITION ( 'UNKNOWN', '', #79, #47 ) ;
#94 = LOCAL_TIME ( 11, 35, 0.0000000000000000000, #2 ) ;
#95 = PERSON_AND_ORGANIZATION ( #52, #9 ) ;
#96 = FACE_OUTER_BOUND ( 'NONE', #19, .T. ) ;
#97 = DATE_AND_TIME ( #26, #136 ) ;
#98 = PERSON_AND_ORGANIZATION ( #52, #9 ) ;
#99 = AXIS2_PLACEMENT_3D ( 'NONE', #159, #39, #68 ) ;
#100 = FACE_OUTER_BOUND ( 'NONE', #203, .T. ) ;
#101 = PERSON_AND_ORGANIZATION_ROLE ( 'creator' ) ;
#102 = CARTESIAN_POINT ( 'NONE',  ( 0.0000000000000000000, 0.0000000000000000000, 0.0000000000000000000 ) ) ;
#103 = CARTESIAN_POINT ( 'NONE',  ( -2.137915722948479128E-30, 7.498798913309288039E-32, -6.123233995736766282E-16 ) ) ;
#104 = CIRCLE ( 'NONE', #171, 9.999999999999969802 ) ;
#105 = VERTEX_POINT ( 'NONE', #148 ) ;
#106 =( LENGTH_UNIT ( ) NAMED_UNIT ( * ) SI_UNIT ( .MILLI., .METRE. ) );
#107 = APPROVAL ( #70, 'UNSPECIFIED' ) ;
#108 = ADVANCED_FACE ( 'NONE', ( #42, #100 ), #163, .T. ) ;
#109 = CYLINDRICAL_SURFACE ( 'NONE', #99, 10.00000000000000000 ) ;
#110 = APPROVAL_DATE_TIME ( #115, #157 ) ;
#111 =( GEOMETRIC_REPRESENTATION_CONTEXT ( 3 ) GLOBAL_UNCERTAINTY_ASSIGNED_CONTEXT ( ( #121 ) ) GLOBAL_UNIT_ASSIGNED_CONTEXT ( ( #106, #151, #183 ) ) REPRESENTATION_CONTEXT ( 'NONE', 'WORKASPACE' ) );
#112 = PERSON_AND_ORGANIZATION ( #52, #9 ) ;
#113 = SHAPE_DEFINITION_REPRESENTATION ( #63, #144 ) ;
#114 = APPROVAL_STATUS ( 'not_yet_approved' ) ;
#115 = DATE_AND_TIME ( #190, #61 ) ;
#116 = CARTESIAN_POINT ( 'NONE',  ( 4.538925740496073109E-13, -1.592040838891559135E-14, 129.9999999999999716 ) ) ;
#117 = VERTEX_POINT ( 'NONE', #44 ) ;
#118 = APPLICATION_CONTEXT ( 'configuration controlled 3d designs of mechanical parts and assemblies' ) ;
#119 = AXIS2_PLACEMENT_3D ( 'NONE', #32, #29, #149 ) ;
#120 = CARTESIAN_POINT ( 'NONE',  ( 1.396592535537253342E-13, 7.498798913309280376E-32, 40.00000000000000000 ) ) ;
#121 = UNCERTAINTY_MEASURE_WITH_UNIT (LENGTH_MEASURE( 1.000000000000000082E-05 ), #106, 'distance_accuracy_value', 'NONE');
#122 = PLANE ( 'NONE',  #119 ) ;
#123 = APPLICATION_PROTOCOL_DEFINITION ( 'international standard', 'config_control_design', 1994, #86 ) ;
#124 = APPROVAL_PERSON_ORGANIZATION ( #69, #1, #189 ) ;
#125 = CC_DESIGN_PERSON_AND_ORGANIZATION_ASSIGNMENT ( #95, #4, ( #93 ) ) ;
#126 = AXIS2_PLACEMENT_3D ( 'NONE', #120, #170, #153 ) ;
#127 = ORIENTED_EDGE ( 'NONE', *, *, #139, .T. ) ;
#128 = CC_DESIGN_APPROVAL ( #107, ( #79 ) ) ;
#129 = PERSON_AND_ORGANIZATION ( #52, #9 ) ;
#130 = EDGE_LOOP ( 'NONE', ( #127 ) ) ;
#131 = SECURITY_CLASSIFICATION_LEVEL ( 'unclassified' ) ;
#132 = MANIFOLD_SOLID_BREP ( 'Corps-Déplacer/Copier1[1]', #49 ) ;
#133 = DIRECTION ( 'NONE',  ( -3.491481338843133355E-15, 1.224646799147353207E-16, -1.000000000000000000 ) ) ;
#134 = DIRECTION ( 'NONE',  ( 4.275831445896958607E-31, 1.000000000000000000, 1.224646799147353207E-16 ) ) ;
#135 = VERTEX_POINT ( 'NONE', #197 ) ;
#136 = LOCAL_TIME ( 11, 35, 0.0000000000000000000, #55 ) ;
#137 = ADVANCED_FACE ( 'NONE', ( #92 ), #35, .T. ) ;
#138 = EDGE_LOOP ( 'NONE', ( #6 ) ) ;
#139 = EDGE_CURVE ( 'NONE', #117, #117, #146, .T. ) ;
#140 = CLOSED_SHELL ( 'NONE', ( #172, #84, #137 ) ) ;
#141 = ORIENTED_EDGE ( 'NONE', *, *, #178, .T. ) ;
#142 = ADVANCED_FACE ( 'NONE', ( #182 ), #14, .F. ) ;
#143 = APPLICATION_PROTOCOL_DEFINITION ( 'international standard', 'config_control_design', 1994, #118 ) ;
#144 = ADVANCED_BREP_SHAPE_REPRESENTATION ( '57117', ( #132, #201, #72 ), #111 ) ;
#145 = DATE_AND_TIME ( #82, #94 ) ;
#146 = CIRCLE ( 'NONE', #57, 10.00000000000000000 ) ;
#147 = APPROVAL_ROLE ( '' ) ;
#148 = CARTESIAN_POINT ( 'NONE',  ( 4.521468333801858011E-13, 9.999999999999953815, 129.5000000000000000 ) ) ;
#149 = DIRECTION ( 'NONE',  ( -4.275831445896958607E-31, -1.000000000000000000, -1.224646799147353207E-16 ) ) ;
#150 = CC_DESIGN_PERSON_AND_ORGANIZATION_ASSIGNMENT ( #20, #166, ( #79 ) ) ;
#151 =( NAMED_UNIT ( * ) PLANE_ANGLE_UNIT ( ) SI_UNIT ( $, .RADIAN. ) );
#152 = CARTESIAN_POINT ( 'NONE',  ( 4.538925740496074119E-13, 7.123858967643796815E-32, 130.0000000000000000 ) ) ;
#153 = DIRECTION ( 'NONE',  ( -4.275831445896958607E-31, -1.000000000000000000, -1.224646799147353207E-16 ) ) ;
#154 = CC_DESIGN_DATE_AND_TIME_ASSIGNMENT ( #27, #53, ( #93 ) ) ;
#155 = CARTESIAN_POINT ( 'NONE',  ( 0.0000000000000000000, 0.0000000000000000000, 0.0000000000000000000 ) ) ;
#156 = CIRCLE ( 'NONE', #80, 10.00000000000000000 ) ;
#157 = APPROVAL ( #114, 'UNSPECIFIED' ) ;
#158 = ADVANCED_FACE ( 'NONE', ( #180, #34 ), #88, .T. ) ;
#159 = CARTESIAN_POINT ( 'NONE',  ( 0.0000000000000000000, 0.0000000000000000000, 0.0000000000000000000 ) ) ;
#160 = DATE_AND_TIME ( #177, #17 ) ;
#161 = CARTESIAN_POINT ( 'NONE',  ( 4.538925740496073109E-13, -1.592040838891559135E-14, 129.9999999999999716 ) ) ;
#162 = PERSON_AND_ORGANIZATION_ROLE ( 'classification_officer' ) ;
#163 = CYLINDRICAL_SURFACE ( 'NONE', #90, 9.999999999999984013 ) ;
#164 = COORDINATED_UNIVERSAL_TIME_OFFSET ( 1, 0, .AHEAD. ) ;
#165 = EDGE_LOOP ( 'NONE', ( #16 ) ) ;
#166 = PERSON_AND_ORGANIZATION_ROLE ( 'design_supplier' ) ;
#167 = FACE_OUTER_BOUND ( 'NONE', #130, .T. ) ;
#168 = LOCAL_TIME ( 11, 35, 0.0000000000000000000, #40 ) ;
#169 = VERTEX_POINT ( 'NONE', #64 ) ;
#170 = DIRECTION ( 'NONE',  ( 3.491481338843133355E-15, -1.224646799147353207E-16, 1.000000000000000000 ) ) ;
#171 = AXIS2_PLACEMENT_3D ( 'NONE', #194, #62, #75 ) ;
#172 = ADVANCED_FACE ( 'NONE', ( #91 ), #89, .T. ) ;
#173 = CC_DESIGN_APPROVAL ( #157, ( #45 ) ) ;
#174 = EDGE_LOOP ( 'NONE', ( #23 ) ) ;
#175 = CALENDAR_DATE ( 2021, 12, 11 ) ;
#176 = ORIENTED_EDGE ( 'NONE', *, *, #139, .F. ) ;
#177 = CALENDAR_DATE ( 2021, 12, 11 ) ;
#178 = EDGE_CURVE ( 'NONE', #105, #105, #104, .T. ) ;
#179 = DIRECTION ( 'NONE',  ( -3.491481338843133355E-15, 1.224646799147353207E-16, -1.000000000000000000 ) ) ;
#180 = FACE_OUTER_BOUND ( 'NONE', #165, .T. ) ;
#181 = AXIS2_PLACEMENT_3D ( 'NONE', #116, #31, #73 ) ;
#182 = FACE_OUTER_BOUND ( 'NONE', #138, .T. ) ;
#183 =( NAMED_UNIT ( * ) SI_UNIT ( $, .STERADIAN. ) SOLID_ANGLE_UNIT ( ) );
#184 = CC_DESIGN_DATE_AND_TIME_ASSIGNMENT ( #145, #24, ( #45 ) ) ;
#185 = AXIS2_PLACEMENT_3D ( 'NONE', #152, #179, #134 ) ;
#186 = AXIS2_PLACEMENT_3D ( 'NONE', #161, #25, #8 ) ;
#187 = EDGE_CURVE ( 'NONE', #10, #10, #156, .T. ) ;
#188 = APPROVAL_PERSON_ORGANIZATION ( #112, #107, #56 ) ;
#189 = APPROVAL_ROLE ( '' ) ;
#190 = CALENDAR_DATE ( 2021, 12, 11 ) ;
#191 = CC_DESIGN_PERSON_AND_ORGANIZATION_ASSIGNMENT ( #193, #87, ( #196 ) ) ;
#192 = FACE_OUTER_BOUND ( 'NONE', #5, .T. ) ;
#193 = PERSON_AND_ORGANIZATION ( #52, #9 ) ;
#194 = CARTESIAN_POINT ( 'NONE',  ( 4.521468333801858011E-13, -1.585917604895822693E-14, 129.5000000000000000 ) ) ;
#195 = DIRECTION ( 'NONE',  ( 4.275831445896958607E-31, 1.000000000000000000, 1.224646799147353207E-16 ) ) ;
#196 = PRODUCT ( '57117', '57117', '', ( #50 ) ) ;
#197 = CARTESIAN_POINT ( 'NONE',  ( 4.538925740496073109E-13, 9.499999999999980460, 129.9999999999999716 ) ) ;
#198 = EDGE_CURVE ( 'NONE', #169, #169, #18, .T. ) ;
#199 = CARTESIAN_POINT ( 'NONE',  ( -4.275831445896958256E-30, 1.499759782661857608E-31, -1.224646799147353256E-15 ) ) ;
#200 = AXIS2_PLACEMENT_3D ( 'NONE', #199, #133, #58 ) ;
#201 = MANIFOLD_SOLID_BREP ( 'Corps-Déplacer/Copier1[2]', #140 ) ;
#202 = ADVANCED_FACE ( 'NONE', ( #167 ), #122, .F. ) ;
#203 = EDGE_LOOP ( 'NONE', ( #176 ) ) ;
ENDSEC;
END-ISO-10303-21;
