ISO-10303-21;
HEADER;
FILE_DESCRIPTION (( 'STEP AP203' ),
    '1' );
FILE_NAME ('57115.step',
    '2021-11-12T10:35:00',
    ( '' ),
    ( '' ),
    'SwSTEP 2.0',
    'SolidWorks 2019',
    '' );
FILE_SCHEMA (( 'CONFIG_CONTROL_DESIGN' ));
ENDSEC;

DATA;
#1 = SECURITY_CLASSIFICATION_LEVEL ( 'unclassified' ) ;
#2 = CLOSED_SHELL ( 'NONE', ( #8, #192, #199, #35 ) ) ;
#3 = PLANE ( 'NONE',  #193 ) ;
#4 = CC_DESIGN_APPROVAL ( #130, ( #86 ) ) ;
#5 = APPROVAL_STATUS ( 'not_yet_approved' ) ;
#6 = EDGE_LOOP ( 'NONE', ( #155 ) ) ;
#7 = COORDINATED_UNIVERSAL_TIME_OFFSET ( 1, 0, .AHEAD. ) ;
#8 = ADVANCED_FACE ( 'NONE', ( #140 ), #3, .F. ) ;
#9 = DIRECTION ( 'NONE',  ( 3.491481338843133355E-15, -1.224646799147353207E-16, 1.000000000000000000 ) ) ;
#10 = PERSON_AND_ORGANIZATION_ROLE ( 'design_supplier' ) ;
#11 = DIRECTION ( 'NONE',  ( -3.491481338843133355E-15, 1.224646799147353207E-16, -1.000000000000000000 ) ) ;
#12 = APPROVAL_PERSON_ORGANIZATION ( #121, #120, #125 ) ;
#13 = DIRECTION ( 'NONE',  ( 4.275831445896958607E-31, 1.000000000000000000, 1.224646799147352961E-16 ) ) ;
#14 = CARTESIAN_POINT ( 'NONE',  ( 1.396592535537253342E-13, 6.748919021978351572E-32, 40.00000000000000000 ) ) ;
#15 = APPLICATION_CONTEXT ( 'configuration controlled 3d designs of mechanical parts and assemblies' ) ;
#16 =( LENGTH_UNIT ( ) NAMED_UNIT ( * ) SI_UNIT ( .MILLI., .METRE. ) );
#17 = APPROVAL_PERSON_ORGANIZATION ( #42, #130, #26 ) ;
#18 = CARTESIAN_POINT ( 'NONE',  ( 1.396592535537253342E-13, -4.898587196589413026E-15, 40.00000000000000000 ) ) ;
#19 = CC_DESIGN_PERSON_AND_ORGANIZATION_ASSIGNMENT ( #43, #31, ( #105 ) ) ;
#20 = DIRECTION ( 'NONE',  ( 0.0000000000000000000, 1.000000000000000000, 0.0000000000000000000 ) ) ;
#21 = AXIS2_PLACEMENT_3D ( 'NONE', #14, #59, #117 ) ;
#22 = CC_DESIGN_DATE_AND_TIME_ASSIGNMENT ( #54, #177, ( #105 ) ) ;
#23 = EDGE_LOOP ( 'NONE', ( #191 ) ) ;
#24 = AXIS2_PLACEMENT_3D ( 'NONE', #194, #89, #20 ) ;
#25 = ORIENTED_EDGE ( 'NONE', *, *, #150, .F. ) ;
#26 = APPROVAL_ROLE ( '' ) ;
#27 = DIRECTION ( 'NONE',  ( -4.275831445896958607E-31, -1.000000000000000000, -1.224646799147353207E-16 ) ) ;
#28 = CARTESIAN_POINT ( 'NONE',  ( -1.924124150653631285E-30, 6.748919021978358140E-32, -5.510910596163088569E-16 ) ) ;
#29 = DATE_TIME_ROLE ( 'classification_date' ) ;
#30 = ADVANCED_FACE ( 'NONE', ( #92 ), #153, .T. ) ;
#31 = PERSON_AND_ORGANIZATION_ROLE ( 'creator' ) ;
#32 = COORDINATED_UNIVERSAL_TIME_OFFSET ( 1, 0, .AHEAD. ) ;
#33 = DIRECTION ( 'NONE',  ( 0.0000000000000000000, 1.000000000000000000, 0.0000000000000000000 ) ) ;
#34 = VERTEX_POINT ( 'NONE', #85 ) ;
#35 = ADVANCED_FACE ( 'NONE', ( #131 ), #72, .F. ) ;
#36 = CYLINDRICAL_SURFACE ( 'NONE', #122, 8.999999999999998224 ) ;
#37 = DIRECTION ( 'NONE',  ( 1.000000000000000000, 0.0000000000000000000, 0.0000000000000000000 ) ) ;
#38 = EDGE_LOOP ( 'NONE', ( #65 ) ) ;
#39 = PRODUCT_DEFINITION_FORMATION_WITH_SPECIFIED_SOURCE ( 'ANY', '', #99, .NOT_KNOWN. ) ;
#40 = ORIENTED_EDGE ( 'NONE', *, *, #119, .T. ) ;
#41 = DATE_AND_TIME ( #170, #78 ) ;
#42 = PERSON_AND_ORGANIZATION ( #200, #161 ) ;
#43 = PERSON_AND_ORGANIZATION ( #200, #161 ) ;
#44 = DIRECTION ( 'NONE',  ( -3.491481338843133355E-15, 1.224646799147353207E-16, -1.000000000000000000 ) ) ;
#45 = PERSON_AND_ORGANIZATION_ROLE ( 'creator' ) ;
#46 = ORIENTED_EDGE ( 'NONE', *, *, #112, .T. ) ;
#47 = FACE_OUTER_BOUND ( 'NONE', #6, .T. ) ;
#48 = FACE_BOUND ( 'NONE', #38, .T. ) ;
#49 = DESIGN_CONTEXT ( 'detailed design', #15, 'design' ) ;
#50 = APPROVAL ( #188, 'UNSPECIFIED' ) ;
#51 = AXIS2_PLACEMENT_3D ( 'NONE', #58, #180, #162 ) ;
#52 = APPLICATION_PROTOCOL_DEFINITION ( 'international standard', 'config_control_design', 1994, #15 ) ;
#53 = CC_DESIGN_PERSON_AND_ORGANIZATION_ASSIGNMENT ( #132, #10, ( #39 ) ) ;
#54 = DATE_AND_TIME ( #187, #203 ) ;
#55 = AXIS2_PLACEMENT_3D ( 'NONE', #164, #182, #13 ) ;
#56 = CC_DESIGN_PERSON_AND_ORGANIZATION_ASSIGNMENT ( #63, #185, ( #99 ) ) ;
#57 = COORDINATED_UNIVERSAL_TIME_OFFSET ( 1, 0, .AHEAD. ) ;
#58 = CARTESIAN_POINT ( 'NONE',  ( 0.0000000000000000000, 0.0000000000000000000, 0.0000000000000000000 ) ) ;
#59 = DIRECTION ( 'NONE',  ( 3.491481338843133355E-15, -1.224646799147353207E-16, 1.000000000000000000 ) ) ;
#60 = CLOSED_SHELL ( 'NONE', ( #30, #104, #202 ) ) ;
#61 = CC_DESIGN_APPROVAL ( #120, ( #105 ) ) ;
#62 = DIRECTION ( 'NONE',  ( -3.491481338843133355E-15, 1.224646799147353207E-16, -1.000000000000000000 ) ) ;
#63 = PERSON_AND_ORGANIZATION ( #200, #161 ) ;
#64 = AXIS2_PLACEMENT_3D ( 'NONE', #166, #106, #37 ) ;
#65 = ORIENTED_EDGE ( 'NONE', *, *, #150, .T. ) ;
#66 = CIRCLE ( 'NONE', #24, 9.000000000000000000 ) ;
#67 = CARTESIAN_POINT ( 'NONE',  ( 4.364351673553916568E-13, 6.373979076312883338E-32, 125.0000000000000000 ) ) ;
#68 = MANIFOLD_SOLID_BREP ( 'Corps-Déplacer/Copier1[2]', #60 ) ;
#69 = CARTESIAN_POINT ( 'NONE',  ( 1.396592535537253342E-13, 6.748919021978351572E-32, 40.00000000000000000 ) ) ;
#70 = APPROVAL_ROLE ( '' ) ;
#71 = EDGE_CURVE ( 'NONE', #136, #136, #141, .T. ) ;
#72 = PLANE ( 'NONE',  #80 ) ;
#73 = CIRCLE ( 'NONE', #169, 8.500000000000015987 ) ;
#74 = PLANE ( 'NONE',  #21 ) ;
#75 = CARTESIAN_POINT ( 'NONE',  ( 4.346894266859701974E-13, 8.999999999999980460, 124.5000000000000284 ) ) ;
#76 =( NAMED_UNIT ( * ) SI_UNIT ( $, .STERADIAN. ) SOLID_ANGLE_UNIT ( ) );
#77 = VERTEX_POINT ( 'NONE', #196 ) ;
#78 = LOCAL_TIME ( 11, 35, 0.0000000000000000000, #57 ) ;
#79 = AXIS2_PLACEMENT_3D ( 'NONE', #158, #11, #198 ) ;
#80 = AXIS2_PLACEMENT_3D ( 'NONE', #67, #44, #157 ) ;
#81 = SHAPE_DEFINITION_REPRESENTATION ( #107, #142 ) ;
#82 = APPLICATION_CONTEXT ( 'configuration controlled 3d designs of mechanical parts and assemblies' ) ;
#83 = EDGE_CURVE ( 'NONE', #77, #77, #146, .T. ) ;
#84 = AXIS2_PLACEMENT_3D ( 'NONE', #101, #147, #114 ) ;
#85 = CARTESIAN_POINT ( 'NONE',  ( 1.396592535537253342E-13, 8.999999999999994671, 40.00000000000000000 ) ) ;
#86 = SECURITY_CLASSIFICATION ( '', '', #1 ) ;
#87 = DIRECTION ( 'NONE',  ( 4.275831445896958607E-31, 1.000000000000000000, 1.224646799147352961E-16 ) ) ;
#88 = FACE_OUTER_BOUND ( 'NONE', #176, .T. ) ;
#89 = DIRECTION ( 'NONE',  ( -3.491481338843133355E-15, 1.224646799147353207E-16, -1.000000000000000000 ) ) ;
#90 = AXIS2_PLACEMENT_3D ( 'NONE', #28, #97, #126 ) ;
#91 =( GEOMETRIC_REPRESENTATION_CONTEXT ( 3 ) GLOBAL_UNCERTAINTY_ASSIGNED_CONTEXT ( ( #116 ) ) GLOBAL_UNIT_ASSIGNED_CONTEXT ( ( #16, #102, #76 ) ) REPRESENTATION_CONTEXT ( 'NONE', 'WORKASPACE' ) );
#92 = FACE_OUTER_BOUND ( 'NONE', #151, .T. ) ;
#93 = APPROVAL_STATUS ( 'not_yet_approved' ) ;
#94 = APPROVAL_DATE_TIME ( #175, #130 ) ;
#95 = ORIENTED_EDGE ( 'NONE', *, *, #83, .F. ) ;
#96 = PERSON_AND_ORGANIZATION ( #200, #161 ) ;
#97 = DIRECTION ( 'NONE',  ( -3.491481338843133355E-15, 1.224646799147353207E-16, -1.000000000000000000 ) ) ;
#98 = FACE_OUTER_BOUND ( 'NONE', #109, .T. ) ;
#99 = PRODUCT ( '57115', '57115', '', ( #148 ) ) ;
#100 = CYLINDRICAL_SURFACE ( 'NONE', #51, 9.000000000000000000 ) ;
#101 = CARTESIAN_POINT ( 'NONE',  ( 4.364351673553916568E-13, -1.530808498934191561E-14, 125.0000000000000000 ) ) ;
#102 =( NAMED_UNIT ( * ) PLANE_ANGLE_UNIT ( ) SI_UNIT ( $, .RADIAN. ) );
#103 = CIRCLE ( 'NONE', #55, 9.000000000000000000 ) ;
#104 = ADVANCED_FACE ( 'NONE', ( #47, #137 ), #100, .T. ) ;
#105 = PRODUCT_DEFINITION ( 'UNKNOWN', '', #39, #49 ) ;
#106 = DIRECTION ( 'NONE',  ( 0.0000000000000000000, 0.0000000000000000000, 1.000000000000000000 ) ) ;
#107 = PRODUCT_DEFINITION_SHAPE ( 'NONE', 'NONE',  #105 ) ;
#108 = EDGE_LOOP ( 'NONE', ( #40 ) ) ;
#109 = EDGE_LOOP ( 'NONE', ( #172 ) ) ;
#110 = EDGE_LOOP ( 'NONE', ( #25 ) ) ;
#111 = CALENDAR_DATE ( 2021, 12, 11 ) ;
#112 = EDGE_CURVE ( 'NONE', #115, #115, #103, .T. ) ;
#113 = COORDINATED_UNIVERSAL_TIME_OFFSET ( 1, 0, .AHEAD. ) ;
#114 = DIRECTION ( 'NONE',  ( 0.0000000000000000000, 1.000000000000000000, 0.0000000000000000000 ) ) ;
#115 = VERTEX_POINT ( 'NONE', #163 ) ;
#116 = UNCERTAINTY_MEASURE_WITH_UNIT (LENGTH_MEASURE( 1.000000000000000082E-05 ), #16, 'distance_accuracy_value', 'NONE');
#117 = DIRECTION ( 'NONE',  ( -4.275831445896958607E-31, -1.000000000000000000, -1.224646799147353207E-16 ) ) ;
#118 = CARTESIAN_POINT ( 'NONE',  ( 4.364351673553916568E-13, -1.530808498934191561E-14, 125.0000000000000000 ) ) ;
#119 = EDGE_CURVE ( 'NONE', #34, #34, #66, .T. ) ;
#120 = APPROVAL ( #93, 'UNSPECIFIED' ) ;
#121 = PERSON_AND_ORGANIZATION ( #200, #161 ) ;
#122 = AXIS2_PLACEMENT_3D ( 'NONE', #197, #184, #87 ) ;
#123 = ORIENTED_EDGE ( 'NONE', *, *, #71, .T. ) ;
#124 = EDGE_LOOP ( 'NONE', ( #95 ) ) ;
#125 = APPROVAL_ROLE ( '' ) ;
#126 = DIRECTION ( 'NONE',  ( 4.275831445896958607E-31, 1.000000000000000000, 1.224646799147353207E-16 ) ) ;
#127 = APPROVAL_DATE_TIME ( #173, #120 ) ;
#128 = LOCAL_TIME ( 11, 35, 0.0000000000000000000, #113 ) ;
#129 = PERSON_AND_ORGANIZATION ( #200, #161 ) ;
#130 = APPROVAL ( #5, 'UNSPECIFIED' ) ;
#131 = FACE_OUTER_BOUND ( 'NONE', #110, .T. ) ;
#132 = PERSON_AND_ORGANIZATION ( #200, #161 ) ;
#133 = PERSON_AND_ORGANIZATION ( #200, #161 ) ;
#134 = MANIFOLD_SOLID_BREP ( 'Corps-Déplacer/Copier1[1]', #2 ) ;
#135 = DIRECTION ( 'NONE',  ( 0.0000000000000000000, 1.000000000000000000, 0.0000000000000000000 ) ) ;
#136 = VERTEX_POINT ( 'NONE', #75 ) ;
#137 = FACE_OUTER_BOUND ( 'NONE', #23, .T. ) ;
#138 = CC_DESIGN_SECURITY_CLASSIFICATION ( #86, ( #39 ) ) ;
#139 = CC_DESIGN_DATE_AND_TIME_ASSIGNMENT ( #41, #29, ( #86 ) ) ;
#140 = FACE_OUTER_BOUND ( 'NONE', #108, .T. ) ;
#141 = CIRCLE ( 'NONE', #79, 8.999999999999996447 ) ;
#142 = ADVANCED_BREP_SHAPE_REPRESENTATION ( '57115', ( #134, #68, #64 ), #91 ) ;
#143 = COORDINATED_UNIVERSAL_TIME_OFFSET ( 1, 0, .AHEAD. ) ;
#144 = FACE_OUTER_BOUND ( 'NONE', #124, .T. ) ;
#145 = CARTESIAN_POINT ( 'NONE',  ( 4.364351673553916568E-13, 8.500000000000000000, 125.0000000000000000 ) ) ;
#146 = CIRCLE ( 'NONE', #165, 9.000000000000000000 ) ;
#147 = DIRECTION ( 'NONE',  ( -3.491481338843133355E-15, 1.224646799147353207E-16, -1.000000000000000000 ) ) ;
#148 = MECHANICAL_CONTEXT ( 'NONE', #82, 'mechanical' ) ;
#149 = APPROVAL_PERSON_ORGANIZATION ( #133, #50, #70 ) ;
#150 = EDGE_CURVE ( 'NONE', #160, #160, #73, .T. ) ;
#151 = EDGE_LOOP ( 'NONE', ( #46 ) ) ;
#152 = CONICAL_SURFACE ( 'NONE', #84, 8.500000000000015987, 0.7853981633974552734 ) ;
#153 = PLANE ( 'NONE',  #90 ) ;
#154 = DATE_AND_TIME ( #190, #181 ) ;
#155 = ORIENTED_EDGE ( 'NONE', *, *, #83, .T. ) ;
#156 = APPROVAL_DATE_TIME ( #154, #50 ) ;
#157 = DIRECTION ( 'NONE',  ( 4.275831445896958607E-31, 1.000000000000000000, 1.224646799147353207E-16 ) ) ;
#158 = CARTESIAN_POINT ( 'NONE',  ( 4.346894266859701974E-13, -1.524685264938455119E-14, 124.5000000000000284 ) ) ;
#159 = CALENDAR_DATE ( 2021, 12, 11 ) ;
#160 = VERTEX_POINT ( 'NONE', #145 ) ;
#161 = ORGANIZATION ( 'UNSPECIFIED', 'UNSPECIFIED', '' ) ;
#162 = DIRECTION ( 'NONE',  ( 4.275831445896958607E-31, 1.000000000000000000, 1.224646799147352961E-16 ) ) ;
#163 = CARTESIAN_POINT ( 'NONE',  ( 0.0000000000000000000, 9.000000000000000000, 0.0000000000000000000 ) ) ;
#164 = CARTESIAN_POINT ( 'NONE',  ( -3.848248301307262571E-30, 1.349783804395671628E-31, -1.102182119232617714E-15 ) ) ;
#165 = AXIS2_PLACEMENT_3D ( 'NONE', #18, #62, #135 ) ;
#166 = CARTESIAN_POINT ( 'NONE',  ( 0.0000000000000000000, 0.0000000000000000000, 0.0000000000000000000 ) ) ;
#167 = PRODUCT_RELATED_PRODUCT_CATEGORY ( 'detail', '', ( #99 ) ) ;
#168 = ORIENTED_EDGE ( 'NONE', *, *, #119, .F. ) ;
#169 = AXIS2_PLACEMENT_3D ( 'NONE', #118, #195, #33 ) ;
#170 = CALENDAR_DATE ( 2021, 12, 11 ) ;
#171 = CC_DESIGN_APPROVAL ( #50, ( #39 ) ) ;
#172 = ORIENTED_EDGE ( 'NONE', *, *, #71, .F. ) ;
#173 = DATE_AND_TIME ( #111, #128 ) ;
#174 = EDGE_LOOP ( 'NONE', ( #123 ) ) ;
#175 = DATE_AND_TIME ( #159, #201 ) ;
#176 = EDGE_LOOP ( 'NONE', ( #168 ) ) ;
#177 = DATE_TIME_ROLE ( 'creation_date' ) ;
#178 = CC_DESIGN_PERSON_AND_ORGANIZATION_ASSIGNMENT ( #96, #189, ( #86 ) ) ;
#179 = APPLICATION_PROTOCOL_DEFINITION ( 'international standard', 'config_control_design', 1994, #82 ) ;
#180 = DIRECTION ( 'NONE',  ( -3.491481338843133355E-15, 1.224646799147353207E-16, -1.000000000000000000 ) ) ;
#181 = LOCAL_TIME ( 11, 35, 0.0000000000000000000, #7 ) ;
#182 = DIRECTION ( 'NONE',  ( -3.491481338843133355E-15, 1.224646799147353207E-16, -1.000000000000000000 ) ) ;
#183 = FACE_OUTER_BOUND ( 'NONE', #174, .T. ) ;
#184 = DIRECTION ( 'NONE',  ( -3.491481338843133355E-15, 1.224646799147353207E-16, -1.000000000000000000 ) ) ;
#185 = PERSON_AND_ORGANIZATION_ROLE ( 'design_owner' ) ;
#186 = CC_DESIGN_PERSON_AND_ORGANIZATION_ASSIGNMENT ( #129, #45, ( #39 ) ) ;
#187 = CALENDAR_DATE ( 2021, 12, 11 ) ;
#188 = APPROVAL_STATUS ( 'not_yet_approved' ) ;
#189 = PERSON_AND_ORGANIZATION_ROLE ( 'classification_officer' ) ;
#190 = CALENDAR_DATE ( 2021, 12, 11 ) ;
#191 = ORIENTED_EDGE ( 'NONE', *, *, #112, .F. ) ;
#192 = ADVANCED_FACE ( 'NONE', ( #183, #88 ), #36, .T. ) ;
#193 = AXIS2_PLACEMENT_3D ( 'NONE', #69, #9, #27 ) ;
#194 = CARTESIAN_POINT ( 'NONE',  ( 1.396592535537253342E-13, -4.898587196589413026E-15, 40.00000000000000000 ) ) ;
#195 = DIRECTION ( 'NONE',  ( -3.491481338843133355E-15, 1.224646799147353207E-16, -1.000000000000000000 ) ) ;
#196 = CARTESIAN_POINT ( 'NONE',  ( 1.396592535537253342E-13, 8.999999999999994671, 40.00000000000000000 ) ) ;
#197 = CARTESIAN_POINT ( 'NONE',  ( 0.0000000000000000000, 0.0000000000000000000, 0.0000000000000000000 ) ) ;
#198 = DIRECTION ( 'NONE',  ( 0.0000000000000000000, 1.000000000000000000, 0.0000000000000000000 ) ) ;
#199 = ADVANCED_FACE ( 'NONE', ( #98, #48 ), #152, .T. ) ;
#200 = PERSON ( 'UNSPECIFIED', 'UNSPECIFIED', 'UNSPECIFIED', ('UNSPECIFIED'), ('UNSPECIFIED'), ('UNSPECIFIED') ) ;
#201 = LOCAL_TIME ( 11, 35, 0.0000000000000000000, #32 ) ;
#202 = ADVANCED_FACE ( 'NONE', ( #144 ), #74, .T. ) ;
#203 = LOCAL_TIME ( 11, 35, 0.0000000000000000000, #143 ) ;
ENDSEC;
END-ISO-10303-21;
