ISO-10303-21;
HEADER;
FILE_DESCRIPTION (( 'STEP AP203' ),
    '1' );
FILE_NAME ('57114.step',
    '2021-11-12T10:35:00',
    ( '' ),
    ( '' ),
    'SwSTEP 2.0',
    'SolidWorks 2019',
    '' );
FILE_SCHEMA (( 'CONFIG_CONTROL_DESIGN' ));
ENDSEC;

DATA;
#1 = DIRECTION ( 'NONE',  ( 0.0000000000000000000, 0.0000000000000000000, 1.000000000000000000 ) ) ;
#2 = FACE_OUTER_BOUND ( 'NONE', #50, .T. ) ;
#3 = PERSON_AND_ORGANIZATION ( #86, #8 ) ;
#4 = ADVANCED_FACE ( 'NONE', ( #36 ), #94, .T. ) ;
#5 = APPROVAL_ROLE ( '' ) ;
#6 = COORDINATED_UNIVERSAL_TIME_OFFSET ( 1, 0, .AHEAD. ) ;
#7 = CARTESIAN_POINT ( 'NONE',  ( 1.047444401652940007E-13, 5.999039130647424958E-32, 30.00000000000000000 ) ) ;
#8 = ORGANIZATION ( 'UNSPECIFIED', 'UNSPECIFIED', '' ) ;
#9 = PRODUCT_DEFINITION_SHAPE ( 'NONE', 'NONE',  #138 ) ;
#10 = EDGE_CURVE ( 'NONE', #159, #159, #123, .T. ) ;
#11 = CARTESIAN_POINT ( 'NONE',  ( 0.0000000000000000000, 0.0000000000000000000, 0.0000000000000000000 ) ) ;
#12 = DIRECTION ( 'NONE',  ( 3.491481338843133355E-15, -1.224646799147353207E-16, 1.000000000000000000 ) ) ;
#13 = CARTESIAN_POINT ( 'NONE',  ( 3.212162831735682182E-13, 5.624099184981952345E-32, 92.00000000000000000 ) ) ;
#14 = CARTESIAN_POINT ( 'NONE',  ( -1.710332578358783092E-30, 5.999039130647430431E-32, -4.898587196589412829E-16 ) ) ;
#15 =( LENGTH_UNIT ( ) NAMED_UNIT ( * ) SI_UNIT ( .MILLI., .METRE. ) );
#16 = APPROVAL_PERSON_ORGANIZATION ( #143, #151, #26 ) ;
#17 = MECHANICAL_CONTEXT ( 'NONE', #73, 'mechanical' ) ;
#18 =( NAMED_UNIT ( * ) SI_UNIT ( $, .STERADIAN. ) SOLID_ANGLE_UNIT ( ) );
#19 = CARTESIAN_POINT ( 'NONE',  ( 1.047444401652940007E-13, 5.999039130647424958E-32, 30.00000000000000000 ) ) ;
#20 = DIRECTION ( 'NONE',  ( 0.0000000000000000000, 1.000000000000000000, 0.0000000000000000000 ) ) ;
#21 = CC_DESIGN_PERSON_AND_ORGANIZATION_ASSIGNMENT ( #42, #81, ( #177 ) ) ;
#22 = VERTEX_POINT ( 'NONE', #115 ) ;
#23 = FACE_OUTER_BOUND ( 'NONE', #111, .T. ) ;
#24 = APPROVAL_DATE_TIME ( #195, #151 ) ;
#25 = CC_DESIGN_PERSON_AND_ORGANIZATION_ASSIGNMENT ( #147, #75, ( #197 ) ) ;
#26 = APPROVAL_ROLE ( '' ) ;
#27 = SHAPE_DEFINITION_REPRESENTATION ( #9, #32 ) ;
#28 = DIRECTION ( 'NONE',  ( -4.275831445896958607E-31, -1.000000000000000000, -1.224646799147353207E-16 ) ) ;
#29 = EDGE_CURVE ( 'NONE', #22, #22, #62, .T. ) ;
#30 = LOCAL_TIME ( 11, 35, 0.0000000000000000000, #130 ) ;
#31 = DIRECTION ( 'NONE',  ( -3.491481338843133355E-15, 1.224646799147353207E-16, -1.000000000000000000 ) ) ;
#32 = ADVANCED_BREP_SHAPE_REPRESENTATION ( '57114', ( #124, #113, #60 ), #88 ) ;
#33 = APPLICATION_CONTEXT ( 'configuration controlled 3d designs of mechanical parts and assemblies' ) ;
#34 = DIRECTION ( 'NONE',  ( -4.275831445896958607E-31, -1.000000000000000000, -1.224646799147353207E-16 ) ) ;
#35 = EDGE_LOOP ( 'NONE', ( #49 ) ) ;
#36 = FACE_OUTER_BOUND ( 'NONE', #41, .T. ) ;
#37 = CC_DESIGN_DATE_AND_TIME_ASSIGNMENT ( #103, #107, ( #145 ) ) ;
#38 = CARTESIAN_POINT ( 'NONE',  ( 3.194705425041467083E-13, 7.999999999999986677, 91.50000000000000000 ) ) ;
#39 = CC_DESIGN_APPROVAL ( #164, ( #145 ) ) ;
#40 = CALENDAR_DATE ( 2021, 12, 11 ) ;
#41 = EDGE_LOOP ( 'NONE', ( #48 ) ) ;
#42 = PERSON_AND_ORGANIZATION ( #86, #8 ) ;
#43 = CARTESIAN_POINT ( 'NONE',  ( 6.842277657836020854E-46, 8.000000000000000000, 0.0000000000000000000 ) ) ;
#44 = CALENDAR_DATE ( 2021, 12, 11 ) ;
#45 = PERSON_AND_ORGANIZATION_ROLE ( 'creator' ) ;
#46 = CC_DESIGN_PERSON_AND_ORGANIZATION_ASSIGNMENT ( #3, #121, ( #145 ) ) ;
#47 = DIRECTION ( 'NONE',  ( 0.0000000000000000000, 1.000000000000000000, 0.0000000000000000000 ) ) ;
#48 = ORIENTED_EDGE ( 'NONE', *, *, #70, .T. ) ;
#49 = ORIENTED_EDGE ( 'NONE', *, *, #134, .F. ) ;
#50 = EDGE_LOOP ( 'NONE', ( #167 ) ) ;
#51 = CALENDAR_DATE ( 2021, 12, 11 ) ;
#52 = VERTEX_POINT ( 'NONE', #155 ) ;
#53 = ORIENTED_EDGE ( 'NONE', *, *, #109, .F. ) ;
#54 = ADVANCED_FACE ( 'NONE', ( #2 ), #99, .F. ) ;
#55 = APPROVAL_ROLE ( '' ) ;
#56 = DIRECTION ( 'NONE',  ( 0.0000000000000000000, 1.000000000000000000, 0.0000000000000000000 ) ) ;
#57 = DIRECTION ( 'NONE',  ( -3.491481338843133355E-15, 1.224646799147353207E-16, -1.000000000000000000 ) ) ;
#58 = CLOSED_SHELL ( 'NONE', ( #4, #193, #137 ) ) ;
#59 = EDGE_LOOP ( 'NONE', ( #153 ) ) ;
#60 = AXIS2_PLACEMENT_3D ( 'NONE', #67, #1, #119 ) ;
#61 = LOCAL_TIME ( 11, 35, 0.0000000000000000000, #188 ) ;
#62 = CIRCLE ( 'NONE', #105, 8.000000000000000000 ) ;
#63 = APPROVAL_STATUS ( 'not_yet_approved' ) ;
#64 = ORIENTED_EDGE ( 'NONE', *, *, #10, .T. ) ;
#65 = CC_DESIGN_PERSON_AND_ORGANIZATION_ASSIGNMENT ( #132, #112, ( #138 ) ) ;
#66 = FACE_OUTER_BOUND ( 'NONE', #129, .T. ) ;
#67 = CARTESIAN_POINT ( 'NONE',  ( 0.0000000000000000000, 0.0000000000000000000, 0.0000000000000000000 ) ) ;
#68 = CARTESIAN_POINT ( 'NONE',  ( -3.420665156717566185E-30, 1.199807826129486086E-31, -9.797174393178825657E-16 ) ) ;
#69 = DATE_AND_TIME ( #72, #133 ) ;
#70 = EDGE_CURVE ( 'NONE', #96, #96, #142, .T. ) ;
#71 = AXIS2_PLACEMENT_3D ( 'NONE', #163, #180, #90 ) ;
#72 = CALENDAR_DATE ( 2021, 12, 11 ) ;
#73 = APPLICATION_CONTEXT ( 'configuration controlled 3d designs of mechanical parts and assemblies' ) ;
#74 = PRODUCT_RELATED_PRODUCT_CATEGORY ( 'detail', '', ( #177 ) ) ;
#75 = PERSON_AND_ORGANIZATION_ROLE ( 'design_supplier' ) ;
#76 = DIRECTION ( 'NONE',  ( 4.275831445896958607E-31, 1.000000000000000000, 1.224646799147353207E-16 ) ) ;
#77 = AXIS2_PLACEMENT_3D ( 'NONE', #13, #127, #79 ) ;
#78 = ORIENTED_EDGE ( 'NONE', *, *, #134, .T. ) ;
#79 = DIRECTION ( 'NONE',  ( 4.275831445896958607E-31, 1.000000000000000000, 1.224646799147353207E-16 ) ) ;
#80 = ADVANCED_FACE ( 'NONE', ( #66, #172 ), #168, .T. ) ;
#81 = PERSON_AND_ORGANIZATION_ROLE ( 'design_owner' ) ;
#82 = AXIS2_PLACEMENT_3D ( 'NONE', #14, #141, #187 ) ;
#83 = ORIENTED_EDGE ( 'NONE', *, *, #29, .T. ) ;
#84 = CARTESIAN_POINT ( 'NONE',  ( 1.047444401652940007E-13, -3.673940397442059178E-15, 30.00000000000000000 ) ) ;
#85 = AXIS2_PLACEMENT_3D ( 'NONE', #100, #158, #20 ) ;
#86 = PERSON ( 'UNSPECIFIED', 'UNSPECIFIED', 'UNSPECIFIED', ('UNSPECIFIED'), ('UNSPECIFIED'), ('UNSPECIFIED') ) ;
#87 = CYLINDRICAL_SURFACE ( 'NONE', #118, 7.999999999999998224 ) ;
#88 =( GEOMETRIC_REPRESENTATION_CONTEXT ( 3 ) GLOBAL_UNCERTAINTY_ASSIGNED_CONTEXT ( ( #140 ) ) GLOBAL_UNIT_ASSIGNED_CONTEXT ( ( #15, #191, #18 ) ) REPRESENTATION_CONTEXT ( 'NONE', 'WORKASPACE' ) );
#89 = CIRCLE ( 'NONE', #198, 8.000000000000000000 ) ;
#90 = DIRECTION ( 'NONE',  ( 0.0000000000000000000, 1.000000000000000000, 0.0000000000000000000 ) ) ;
#91 = DIRECTION ( 'NONE',  ( 4.275831445896958607E-31, 1.000000000000000000, 1.224646799147353207E-16 ) ) ;
#92 = FACE_OUTER_BOUND ( 'NONE', #189, .T. ) ;
#93 = APPROVAL_PERSON_ORGANIZATION ( #161, #164, #5 ) ;
#94 = PLANE ( 'NONE',  #82 ) ;
#95 = DATE_TIME_ROLE ( 'creation_date' ) ;
#96 = VERTEX_POINT ( 'NONE', #43 ) ;
#97 = EDGE_LOOP ( 'NONE', ( #83 ) ) ;
#98 = PERSON_AND_ORGANIZATION ( #86, #8 ) ;
#99 = PLANE ( 'NONE',  #156 ) ;
#100 = CARTESIAN_POINT ( 'NONE',  ( 3.212162831735682182E-13, -1.126675055215564941E-14, 92.00000000000000000 ) ) ;
#101 = APPROVAL ( #131, 'UNSPECIFIED' ) ;
#102 = DIRECTION ( 'NONE',  ( -3.491481338843133355E-15, 1.224646799147353207E-16, -1.000000000000000000 ) ) ;
#103 = DATE_AND_TIME ( #44, #185 ) ;
#104 = LOCAL_TIME ( 11, 35, 0.0000000000000000000, #6 ) ;
#105 = AXIS2_PLACEMENT_3D ( 'NONE', #194, #57, #47 ) ;
#106 = COORDINATED_UNIVERSAL_TIME_OFFSET ( 1, 0, .AHEAD. ) ;
#107 = DATE_TIME_ROLE ( 'classification_date' ) ;
#108 = DIRECTION ( 'NONE',  ( -3.491481338843133355E-15, 1.224646799147353207E-16, -1.000000000000000000 ) ) ;
#109 = EDGE_CURVE ( 'NONE', #52, #52, #89, .T. ) ;
#110 = ORIENTED_EDGE ( 'NONE', *, *, #70, .F. ) ;
#111 = EDGE_LOOP ( 'NONE', ( #53 ) ) ;
#112 = PERSON_AND_ORGANIZATION_ROLE ( 'creator' ) ;
#113 = MANIFOLD_SOLID_BREP ( 'Corps-Déplacer/Copier1[2]', #58 ) ;
#114 = DATE_AND_TIME ( #40, #30 ) ;
#115 = CARTESIAN_POINT ( 'NONE',  ( 1.047444401652940007E-13, 7.999999999999996447, 30.00000000000000000 ) ) ;
#116 = AXIS2_PLACEMENT_3D ( 'NONE', #11, #31, #76 ) ;
#117 = AXIS2_PLACEMENT_3D ( 'NONE', #68, #148, #166 ) ;
#118 = AXIS2_PLACEMENT_3D ( 'NONE', #122, #102, #91 ) ;
#119 = DIRECTION ( 'NONE',  ( 1.000000000000000000, 0.0000000000000000000, 0.0000000000000000000 ) ) ;
#120 = CARTESIAN_POINT ( 'NONE',  ( 3.194705425041467083E-13, -1.120551821219828183E-14, 91.50000000000000000 ) ) ;
#121 = PERSON_AND_ORGANIZATION_ROLE ( 'classification_officer' ) ;
#122 = CARTESIAN_POINT ( 'NONE',  ( 0.0000000000000000000, 0.0000000000000000000, 0.0000000000000000000 ) ) ;
#123 = CIRCLE ( 'NONE', #190, 7.999999999999996447 ) ;
#124 = MANIFOLD_SOLID_BREP ( 'Corps-Déplacer/Copier1[1]', #150 ) ;
#125 = CC_DESIGN_SECURITY_CLASSIFICATION ( #145, ( #197 ) ) ;
#126 = DIRECTION ( 'NONE',  ( -3.491481338843133355E-15, 1.224646799147353207E-16, -1.000000000000000000 ) ) ;
#127 = DIRECTION ( 'NONE',  ( -3.491481338843133355E-15, 1.224646799147353207E-16, -1.000000000000000000 ) ) ;
#128 = ADVANCED_FACE ( 'NONE', ( #203, #23 ), #87, .T. ) ;
#129 = EDGE_LOOP ( 'NONE', ( #184 ) ) ;
#130 = COORDINATED_UNIVERSAL_TIME_OFFSET ( 1, 0, .AHEAD. ) ;
#131 = APPROVAL_STATUS ( 'not_yet_approved' ) ;
#132 = PERSON_AND_ORGANIZATION ( #86, #8 ) ;
#133 = LOCAL_TIME ( 11, 35, 0.0000000000000000000, #165 ) ;
#134 = EDGE_CURVE ( 'NONE', #192, #192, #200, .T. ) ;
#135 = SECURITY_CLASSIFICATION_LEVEL ( 'unclassified' ) ;
#136 = FACE_OUTER_BOUND ( 'NONE', #59, .T. ) ;
#137 = ADVANCED_FACE ( 'NONE', ( #136 ), #196, .T. ) ;
#138 = PRODUCT_DEFINITION ( 'UNKNOWN', '', #197, #181 ) ;
#139 = AXIS2_PLACEMENT_3D ( 'NONE', #7, #12, #34 ) ;
#140 = UNCERTAINTY_MEASURE_WITH_UNIT (LENGTH_MEASURE( 1.000000000000000082E-05 ), #15, 'distance_accuracy_value', 'NONE');
#141 = DIRECTION ( 'NONE',  ( -3.491481338843133355E-15, 1.224646799147353207E-16, -1.000000000000000000 ) ) ;
#142 = CIRCLE ( 'NONE', #117, 8.000000000000000000 ) ;
#143 = PERSON_AND_ORGANIZATION ( #86, #8 ) ;
#144 = APPLICATION_PROTOCOL_DEFINITION ( 'international standard', 'config_control_design', 1994, #33 ) ;
#145 = SECURITY_CLASSIFICATION ( '', '', #135 ) ;
#146 = APPLICATION_PROTOCOL_DEFINITION ( 'international standard', 'config_control_design', 1994, #73 ) ;
#147 = PERSON_AND_ORGANIZATION ( #86, #8 ) ;
#148 = DIRECTION ( 'NONE',  ( -3.491481338843133355E-15, 1.224646799147353207E-16, -1.000000000000000000 ) ) ;
#149 = CC_DESIGN_APPROVAL ( #101, ( #138 ) ) ;
#150 = CLOSED_SHELL ( 'NONE', ( #54, #128, #80, #169 ) ) ;
#151 = APPROVAL ( #63, 'UNSPECIFIED' ) ;
#152 = CYLINDRICAL_SURFACE ( 'NONE', #116, 8.000000000000000000 ) ;
#153 = ORIENTED_EDGE ( 'NONE', *, *, #29, .F. ) ;
#154 = CC_DESIGN_PERSON_AND_ORGANIZATION_ASSIGNMENT ( #162, #45, ( #197 ) ) ;
#155 = CARTESIAN_POINT ( 'NONE',  ( 1.047444401652940007E-13, 7.999999999999996447, 30.00000000000000000 ) ) ;
#156 = AXIS2_PLACEMENT_3D ( 'NONE', #19, #202, #28 ) ;
#157 = CARTESIAN_POINT ( 'NONE',  ( 3.212162831735682182E-13, 7.499999999999992895, 92.00000000000000000 ) ) ;
#158 = DIRECTION ( 'NONE',  ( -3.491481338843133355E-15, 1.224646799147353207E-16, -1.000000000000000000 ) ) ;
#159 = VERTEX_POINT ( 'NONE', #38 ) ;
#160 = APPROVAL_DATE_TIME ( #69, #164 ) ;
#161 = PERSON_AND_ORGANIZATION ( #86, #8 ) ;
#162 = PERSON_AND_ORGANIZATION ( #86, #8 ) ;
#163 = CARTESIAN_POINT ( 'NONE',  ( 3.212162831735682182E-13, -1.126675055215564941E-14, 92.00000000000000000 ) ) ;
#164 = APPROVAL ( #176, 'UNSPECIFIED' ) ;
#165 = COORDINATED_UNIVERSAL_TIME_OFFSET ( 1, 0, .AHEAD. ) ;
#166 = DIRECTION ( 'NONE',  ( 4.275831445896958607E-31, 1.000000000000000000, 1.224646799147353207E-16 ) ) ;
#167 = ORIENTED_EDGE ( 'NONE', *, *, #109, .T. ) ;
#168 = CONICAL_SURFACE ( 'NONE', #85, 7.500000000000004441, 0.7853981633974405074 ) ;
#169 = ADVANCED_FACE ( 'NONE', ( #182 ), #199, .F. ) ;
#170 = EDGE_LOOP ( 'NONE', ( #78 ) ) ;
#171 = DATE_AND_TIME ( #51, #61 ) ;
#172 = FACE_BOUND ( 'NONE', #170, .T. ) ;
#173 = APPROVAL_DATE_TIME ( #114, #101 ) ;
#174 = DIRECTION ( 'NONE',  ( 0.0000000000000000000, 1.000000000000000000, 0.0000000000000000000 ) ) ;
#175 = CC_DESIGN_APPROVAL ( #151, ( #197 ) ) ;
#176 = APPROVAL_STATUS ( 'not_yet_approved' ) ;
#177 = PRODUCT ( '57114', '57114', '', ( #17 ) ) ;
#178 = CALENDAR_DATE ( 2021, 12, 11 ) ;
#179 = APPROVAL_PERSON_ORGANIZATION ( #98, #101, #55 ) ;
#180 = DIRECTION ( 'NONE',  ( -3.491481338843133355E-15, 1.224646799147353207E-16, -1.000000000000000000 ) ) ;
#181 = DESIGN_CONTEXT ( 'detailed design', #33, 'design' ) ;
#182 = FACE_OUTER_BOUND ( 'NONE', #35, .T. ) ;
#183 = CC_DESIGN_DATE_AND_TIME_ASSIGNMENT ( #171, #95, ( #138 ) ) ;
#184 = ORIENTED_EDGE ( 'NONE', *, *, #10, .F. ) ;
#185 = LOCAL_TIME ( 11, 35, 0.0000000000000000000, #106 ) ;
#186 = FACE_OUTER_BOUND ( 'NONE', #97, .T. ) ;
#187 = DIRECTION ( 'NONE',  ( 4.275831445896958607E-31, 1.000000000000000000, 1.224646799147353207E-16 ) ) ;
#188 = COORDINATED_UNIVERSAL_TIME_OFFSET ( 1, 0, .AHEAD. ) ;
#189 = EDGE_LOOP ( 'NONE', ( #110 ) ) ;
#190 = AXIS2_PLACEMENT_3D ( 'NONE', #120, #108, #174 ) ;
#191 =( NAMED_UNIT ( * ) PLANE_ANGLE_UNIT ( ) SI_UNIT ( $, .RADIAN. ) );
#192 = VERTEX_POINT ( 'NONE', #157 ) ;
#193 = ADVANCED_FACE ( 'NONE', ( #186, #92 ), #152, .T. ) ;
#194 = CARTESIAN_POINT ( 'NONE',  ( 1.047444401652940007E-13, -3.673940397442059178E-15, 30.00000000000000000 ) ) ;
#195 = DATE_AND_TIME ( #178, #104 ) ;
#196 = PLANE ( 'NONE',  #139 ) ;
#197 = PRODUCT_DEFINITION_FORMATION_WITH_SPECIFIED_SOURCE ( 'ANY', '', #177, .NOT_KNOWN. ) ;
#198 = AXIS2_PLACEMENT_3D ( 'NONE', #84, #126, #56 ) ;
#199 = PLANE ( 'NONE',  #77 ) ;
#200 = CIRCLE ( 'NONE', #71, 7.500000000000004441 ) ;
#201 = EDGE_LOOP ( 'NONE', ( #64 ) ) ;
#202 = DIRECTION ( 'NONE',  ( 3.491481338843133355E-15, -1.224646799147353207E-16, 1.000000000000000000 ) ) ;
#203 = FACE_OUTER_BOUND ( 'NONE', #201, .T. ) ;
ENDSEC;
END-ISO-10303-21;
