ISO-10303-21;
HEADER;
FILE_DESCRIPTION (( 'STEP AP203' ),
    '1' );
FILE_NAME ('57110.step',
    '2021-11-12T10:34:58',
    ( '' ),
    ( '' ),
    'SwSTEP 2.0',
    'SolidWorks 2019',
    '' );
FILE_SCHEMA (( 'CONFIG_CONTROL_DESIGN' ));
ENDSEC;

DATA;
#1 = COORDINATED_UNIVERSAL_TIME_OFFSET ( 1, 0, .AHEAD. ) ;
#2 = FACE_OUTER_BOUND ( 'NONE', #186, .T. ) ;
#3 = CLOSED_SHELL ( 'NONE', ( #190, #203, #198, #105 ) ) ;
#4 = CC_DESIGN_APPROVAL ( #82, ( #96 ) ) ;
#5 = DIRECTION ( 'NONE',  ( -4.275831445896958607E-31, -1.000000000000000000, -1.224646799147353207E-16 ) ) ;
#6 = FACE_OUTER_BOUND ( 'NONE', #165, .T. ) ;
#7 = DIRECTION ( 'NONE',  ( -3.491481338843133355E-15, 1.224646799147353207E-16, -1.000000000000000000 ) ) ;
#8 = CC_DESIGN_PERSON_AND_ORGANIZATION_ASSIGNMENT ( #42, #126, ( #96 ) ) ;
#9 = PERSON_AND_ORGANIZATION ( #200, #81 ) ;
#10 = APPROVAL_DATE_TIME ( #106, #82 ) ;
#11 = PERSON_AND_ORGANIZATION ( #200, #81 ) ;
#12 = APPROVAL_STATUS ( 'not_yet_approved' ) ;
#13 = EDGE_LOOP ( 'NONE', ( #171 ) ) ;
#14 = COORDINATED_UNIVERSAL_TIME_OFFSET ( 1, 0, .AHEAD. ) ;
#15 = EDGE_CURVE ( 'NONE', #191, #191, #180, .T. ) ;
#16 = SECURITY_CLASSIFICATION ( '', '', #90 ) ;
#17 = AXIS2_PLACEMENT_3D ( 'NONE', #103, #57, #102 ) ;
#18 = LOCAL_TIME ( 11, 34, 58.00000000000000000, #166 ) ;
#19 = DIRECTION ( 'NONE',  ( 0.0000000000000000000, 1.000000000000000000, 0.0000000000000000000 ) ) ;
#20 = CARTESIAN_POINT ( 'NONE',  ( 1.047444401652940007E-13, 4.499279347985566802E-32, 30.00000000000000000 ) ) ;
#21 = DIRECTION ( 'NONE',  ( 0.0000000000000000000, 1.000000000000000000, 0.0000000000000000000 ) ) ;
#22 = DIRECTION ( 'NONE',  ( -3.491481338843133355E-15, 1.224646799147353207E-16, -1.000000000000000000 ) ) ;
#23 = FACE_OUTER_BOUND ( 'NONE', #39, .T. ) ;
#24 = APPLICATION_CONTEXT ( 'configuration controlled 3d designs of mechanical parts and assemblies' ) ;
#25 = CALENDAR_DATE ( 2021, 12, 11 ) ;
#26 = PERSON_AND_ORGANIZATION ( #200, #81 ) ;
#27 = PERSON_AND_ORGANIZATION_ROLE ( 'design_owner' ) ;
#28 = DESIGN_CONTEXT ( 'detailed design', #49, 'design' ) ;
#29 = APPROVAL_DATE_TIME ( #199, #44 ) ;
#30 = CARTESIAN_POINT ( 'NONE',  ( 0.0000000000000000000, 0.0000000000000000000, 0.0000000000000000000 ) ) ;
#31 = CC_DESIGN_PERSON_AND_ORGANIZATION_ASSIGNMENT ( #92, #128, ( #16 ) ) ;
#32 = CIRCLE ( 'NONE', #60, 6.000000000000000000 ) ;
#33 = AXIS2_PLACEMENT_3D ( 'NONE', #20, #131, #5 ) ;
#34 = DATE_TIME_ROLE ( 'classification_date' ) ;
#35 = EDGE_LOOP ( 'NONE', ( #41 ) ) ;
#36 = AXIS2_PLACEMENT_3D ( 'NONE', #56, #58, #19 ) ;
#37 = CYLINDRICAL_SURFACE ( 'NONE', #111, 6.000000000000000000 ) ;
#38 = CC_DESIGN_DATE_AND_TIME_ASSIGNMENT ( #91, #59, ( #96 ) ) ;
#39 = EDGE_LOOP ( 'NONE', ( #114 ) ) ;
#40 = CARTESIAN_POINT ( 'NONE',  ( -2.565498867538175514E-30, 8.998558695971145647E-32, -7.347880794884119736E-16 ) ) ;
#41 = ORIENTED_EDGE ( 'NONE', *, *, #53, .F. ) ;
#42 = PERSON_AND_ORGANIZATION ( #200, #81 ) ;
#43 = APPROVAL_STATUS ( 'not_yet_approved' ) ;
#44 = APPROVAL ( #43, 'UNSPECIFIED' ) ;
#45 = APPLICATION_PROTOCOL_DEFINITION ( 'international standard', 'config_control_design', 1994, #24 ) ;
#46 = AXIS2_PLACEMENT_3D ( 'NONE', #178, #66, #130 ) ;
#47 = APPLICATION_PROTOCOL_DEFINITION ( 'international standard', 'config_control_design', 1994, #49 ) ;
#48 = COORDINATED_UNIVERSAL_TIME_OFFSET ( 1, 0, .AHEAD. ) ;
#49 = APPLICATION_CONTEXT ( 'configuration controlled 3d designs of mechanical parts and assemblies' ) ;
#50 = LOCAL_TIME ( 11, 34, 58.00000000000000000, #120 ) ;
#51 = PRODUCT_DEFINITION_FORMATION_WITH_SPECIFIED_SOURCE ( 'ANY', '', #150, .NOT_KNOWN. ) ;
#52 = FACE_BOUND ( 'NONE', #157, .T. ) ;
#53 = EDGE_CURVE ( 'NONE', #155, #155, #32, .T. ) ;
#54 = PERSON_AND_ORGANIZATION ( #200, #81 ) ;
#55 = FACE_OUTER_BOUND ( 'NONE', #80, .T. ) ;
#56 = CARTESIAN_POINT ( 'NONE',  ( 2.548781377355487223E-13, -8.939921633775676859E-15, 73.00000000000000000 ) ) ;
#57 = DIRECTION ( 'NONE',  ( -3.491481338843133355E-15, 1.224646799147353207E-16, -1.000000000000000000 ) ) ;
#58 = DIRECTION ( 'NONE',  ( -3.491481338843133355E-15, 1.224646799147353207E-16, -1.000000000000000000 ) ) ;
#59 = DATE_TIME_ROLE ( 'creation_date' ) ;
#60 = AXIS2_PLACEMENT_3D ( 'NONE', #40, #117, #119 ) ;
#61 = PERSON_AND_ORGANIZATION ( #200, #81 ) ;
#62 = CC_DESIGN_PERSON_AND_ORGANIZATION_ASSIGNMENT ( #9, #74, ( #51 ) ) ;
#63 = APPROVAL_ROLE ( '' ) ;
#64 = ORIENTED_EDGE ( 'NONE', *, *, #76, .F. ) ;
#65 = CALENDAR_DATE ( 2021, 12, 11 ) ;
#66 = DIRECTION ( 'NONE',  ( -3.491481338843133355E-15, 1.224646799147353207E-16, -1.000000000000000000 ) ) ;
#67 = DATE_AND_TIME ( #115, #202 ) ;
#68 = DIRECTION ( 'NONE',  ( -4.275831445896958607E-31, -1.000000000000000000, -1.224646799147353207E-16 ) ) ;
#69 = FACE_OUTER_BOUND ( 'NONE', #13, .T. ) ;
#70 = CC_DESIGN_PERSON_AND_ORGANIZATION_ASSIGNMENT ( #26, #77, ( #51 ) ) ;
#71 = DIRECTION ( 'NONE',  ( -3.491481338843133355E-15, 1.224646799147353207E-16, -1.000000000000000000 ) ) ;
#72 = CARTESIAN_POINT ( 'NONE',  ( -1.282749433769087757E-30, 4.499279347985572824E-32, -3.673940397442059868E-16 ) ) ;
#73 = AXIS2_PLACEMENT_3D ( 'NONE', #30, #78, #169 ) ;
#74 = PERSON_AND_ORGANIZATION_ROLE ( 'design_supplier' ) ;
#75 = CARTESIAN_POINT ( 'NONE',  ( 2.531323970661271619E-13, 5.999999999999991118, 72.50000000000000000 ) ) ;
#76 = EDGE_CURVE ( 'NONE', #197, #197, #93, .T. ) ;
#77 = PERSON_AND_ORGANIZATION_ROLE ( 'creator' ) ;
#78 = DIRECTION ( 'NONE',  ( 0.0000000000000000000, 0.0000000000000000000, 1.000000000000000000 ) ) ;
#79 =( NAMED_UNIT ( * ) PLANE_ANGLE_UNIT ( ) SI_UNIT ( $, .RADIAN. ) );
#80 = EDGE_LOOP ( 'NONE', ( #201 ) ) ;
#81 = ORGANIZATION ( 'UNSPECIFIED', 'UNSPECIFIED', '' ) ;
#82 = APPROVAL ( #12, 'UNSPECIFIED' ) ;
#83 = FACE_OUTER_BOUND ( 'NONE', #162, .T. ) ;
#84 = ORIENTED_EDGE ( 'NONE', *, *, #76, .T. ) ;
#85 = DIRECTION ( 'NONE',  ( -3.491481338843133355E-15, 1.224646799147353207E-16, -1.000000000000000000 ) ) ;
#86 = CIRCLE ( 'NONE', #159, 5.999999999999999112 ) ;
#87 = FACE_OUTER_BOUND ( 'NONE', #140, .T. ) ;
#88 = DIRECTION ( 'NONE',  ( 4.275831445896958607E-31, 1.000000000000000000, 1.224646799147353207E-16 ) ) ;
#89 = EDGE_CURVE ( 'NONE', #149, #149, #158, .T. ) ;
#90 = SECURITY_CLASSIFICATION_LEVEL ( 'unclassified' ) ;
#91 = DATE_AND_TIME ( #138, #110 ) ;
#92 = PERSON_AND_ORGANIZATION ( #200, #81 ) ;
#93 = CIRCLE ( 'NONE', #135, 5.999999999999999112 ) ;
#94 = MECHANICAL_CONTEXT ( 'NONE', #24, 'mechanical' ) ;
#95 = ORIENTED_EDGE ( 'NONE', *, *, #53, .T. ) ;
#96 = PRODUCT_DEFINITION ( 'UNKNOWN', '', #51, #28 ) ;
#97 = CARTESIAN_POINT ( 'NONE',  ( 2.548781377355487223E-13, 4.124339402320095284E-32, 73.00000000000000000 ) ) ;
#98 = AXIS2_PLACEMENT_3D ( 'NONE', #116, #85, #163 ) ;
#99 = CC_DESIGN_SECURITY_CLASSIFICATION ( #16, ( #51 ) ) ;
#100 = PLANE ( 'NONE',  #153 ) ;
#101 = DIRECTION ( 'NONE',  ( -3.491481338843133355E-15, 1.224646799147353207E-16, -1.000000000000000000 ) ) ;
#102 = DIRECTION ( 'NONE',  ( 0.0000000000000000000, 1.000000000000000000, 0.0000000000000000000 ) ) ;
#103 = CARTESIAN_POINT ( 'NONE',  ( 2.548781377355487223E-13, -8.939921633775676859E-15, 73.00000000000000000 ) ) ;
#104 = APPROVAL_ROLE ( '' ) ;
#105 = ADVANCED_FACE ( 'NONE', ( #55 ), #181, .F. ) ;
#106 = DATE_AND_TIME ( #182, #50 ) ;
#107 =( LENGTH_UNIT ( ) NAMED_UNIT ( * ) SI_UNIT ( .MILLI., .METRE. ) );
#108 = MANIFOLD_SOLID_BREP ( 'Corps-Déplacer/Copier1[1]', #3 ) ;
#109 = ORIENTED_EDGE ( 'NONE', *, *, #89, .F. ) ;
#110 = LOCAL_TIME ( 11, 34, 58.00000000000000000, #48 ) ;
#111 = AXIS2_PLACEMENT_3D ( 'NONE', #143, #22, #132 ) ;
#112 = ADVANCED_FACE ( 'NONE', ( #23, #133 ), #37, .T. ) ;
#113 = APPROVAL_DATE_TIME ( #67, #173 ) ;
#114 = ORIENTED_EDGE ( 'NONE', *, *, #189, .T. ) ;
#115 = CALENDAR_DATE ( 2021, 12, 11 ) ;
#116 = CARTESIAN_POINT ( 'NONE',  ( 2.531323970661271619E-13, -8.878689293818309285E-15, 72.50000000000000000 ) ) ;
#117 = DIRECTION ( 'NONE',  ( -3.491481338843133355E-15, 1.224646799147353207E-16, -1.000000000000000000 ) ) ;
#118 = ADVANCED_BREP_SHAPE_REPRESENTATION ( '57110', ( #108, #170, #73 ), #154 ) ;
#119 = DIRECTION ( 'NONE',  ( 4.275831445896959482E-31, 1.000000000000000000, 1.224646799147353207E-16 ) ) ;
#120 = COORDINATED_UNIVERSAL_TIME_OFFSET ( 1, 0, .AHEAD. ) ;
#121 = CC_DESIGN_PERSON_AND_ORGANIZATION_ASSIGNMENT ( #61, #27, ( #150 ) ) ;
#122 = UNCERTAINTY_MEASURE_WITH_UNIT (LENGTH_MEASURE( 1.000000000000000082E-05 ), #107, 'distance_accuracy_value', 'NONE');
#123 = PRODUCT_DEFINITION_SHAPE ( 'NONE', 'NONE',  #96 ) ;
#124 = APPROVAL_PERSON_ORGANIZATION ( #54, #173, #63 ) ;
#125 = CARTESIAN_POINT ( 'NONE',  ( 1.047444401652940007E-13, 5.999999999999995559, 30.00000000000000000 ) ) ;
#126 = PERSON_AND_ORGANIZATION_ROLE ( 'creator' ) ;
#127 = AXIS2_PLACEMENT_3D ( 'NONE', #193, #161, #68 ) ;
#128 = PERSON_AND_ORGANIZATION_ROLE ( 'classification_officer' ) ;
#129 = APPROVAL_STATUS ( 'not_yet_approved' ) ;
#130 = DIRECTION ( 'NONE',  ( 4.275831445896959482E-31, 1.000000000000000000, 1.224646799147353207E-16 ) ) ;
#131 = DIRECTION ( 'NONE',  ( 3.491481338843133355E-15, -1.224646799147353207E-16, 1.000000000000000000 ) ) ;
#132 = DIRECTION ( 'NONE',  ( 4.275831445896959482E-31, 1.000000000000000000, 1.224646799147353207E-16 ) ) ;
#133 = FACE_OUTER_BOUND ( 'NONE', #35, .T. ) ;
#134 = DIRECTION ( 'NONE',  ( 0.0000000000000000000, 1.000000000000000000, 0.0000000000000000000 ) ) ;
#135 = AXIS2_PLACEMENT_3D ( 'NONE', #177, #101, #21 ) ;
#136 = CONICAL_SURFACE ( 'NONE', #36, 5.500000000000000000, 0.7853981633974482790 ) ;
#137 = CARTESIAN_POINT ( 'NONE',  ( 2.548781377355487223E-13, 5.499999999999991118, 73.00000000000000000 ) ) ;
#138 = CALENDAR_DATE ( 2021, 12, 11 ) ;
#139 = VERTEX_POINT ( 'NONE', #168 ) ;
#140 = EDGE_LOOP ( 'NONE', ( #95 ) ) ;
#141 = CYLINDRICAL_SURFACE ( 'NONE', #46, 6.000000000000000000 ) ;
#142 = ADVANCED_FACE ( 'NONE', ( #87 ), #100, .T. ) ;
#143 = CARTESIAN_POINT ( 'NONE',  ( 0.0000000000000000000, 0.0000000000000000000, 0.0000000000000000000 ) ) ;
#144 = DIRECTION ( 'NONE',  ( 4.275831445896958607E-31, 1.000000000000000000, 1.224646799147353207E-16 ) ) ;
#145 = LOCAL_TIME ( 11, 34, 58.00000000000000000, #1 ) ;
#146 = PLANE ( 'NONE',  #127 ) ;
#147 = CARTESIAN_POINT ( 'NONE',  ( 1.047444401652940007E-13, -3.673940397442059178E-15, 30.00000000000000000 ) ) ;
#148 = PRODUCT_RELATED_PRODUCT_CATEGORY ( 'detail', '', ( #150 ) ) ;
#149 = VERTEX_POINT ( 'NONE', #75 ) ;
#150 = PRODUCT ( '57110', '57110', '', ( #94 ) ) ;
#151 = APPROVAL_ROLE ( '' ) ;
#152 = PERSON_AND_ORGANIZATION ( #200, #81 ) ;
#153 = AXIS2_PLACEMENT_3D ( 'NONE', #72, #195, #88 ) ;
#154 =( GEOMETRIC_REPRESENTATION_CONTEXT ( 3 ) GLOBAL_UNCERTAINTY_ASSIGNED_CONTEXT ( ( #122 ) ) GLOBAL_UNIT_ASSIGNED_CONTEXT ( ( #107, #79, #183 ) ) REPRESENTATION_CONTEXT ( 'NONE', 'WORKASPACE' ) );
#155 = VERTEX_POINT ( 'NONE', #184 ) ;
#156 = ADVANCED_FACE ( 'NONE', ( #69 ), #146, .T. ) ;
#157 = EDGE_LOOP ( 'NONE', ( #194 ) ) ;
#158 = CIRCLE ( 'NONE', #98, 6.000000000000000000 ) ;
#159 = AXIS2_PLACEMENT_3D ( 'NONE', #147, #7, #134 ) ;
#160 = FACE_OUTER_BOUND ( 'NONE', #176, .T. ) ;
#161 = DIRECTION ( 'NONE',  ( 3.491481338843133355E-15, -1.224646799147353207E-16, 1.000000000000000000 ) ) ;
#162 = EDGE_LOOP ( 'NONE', ( #64 ) ) ;
#163 = DIRECTION ( 'NONE',  ( 0.0000000000000000000, 1.000000000000000000, 0.0000000000000000000 ) ) ;
#164 = CC_DESIGN_APPROVAL ( #44, ( #51 ) ) ;
#165 = EDGE_LOOP ( 'NONE', ( #192 ) ) ;
#166 = COORDINATED_UNIVERSAL_TIME_OFFSET ( 1, 0, .AHEAD. ) ;
#167 = CC_DESIGN_DATE_AND_TIME_ASSIGNMENT ( #188, #34, ( #16 ) ) ;
#168 = CARTESIAN_POINT ( 'NONE',  ( 1.047444401652940007E-13, 5.999999999999995559, 30.00000000000000000 ) ) ;
#169 = DIRECTION ( 'NONE',  ( 1.000000000000000000, 0.0000000000000000000, 0.0000000000000000000 ) ) ;
#170 = MANIFOLD_SOLID_BREP ( 'Corps-Déplacer/Copier1[2]', #185 ) ;
#171 = ORIENTED_EDGE ( 'NONE', *, *, #189, .F. ) ;
#172 = SHAPE_DEFINITION_REPRESENTATION ( #123, #118 ) ;
#173 = APPROVAL ( #129, 'UNSPECIFIED' ) ;
#174 = AXIS2_PLACEMENT_3D ( 'NONE', #97, #71, #144 ) ;
#175 = CC_DESIGN_APPROVAL ( #173, ( #16 ) ) ;
#176 = EDGE_LOOP ( 'NONE', ( #109 ) ) ;
#177 = CARTESIAN_POINT ( 'NONE',  ( 1.047444401652940007E-13, -3.673940397442059178E-15, 30.00000000000000000 ) ) ;
#178 = CARTESIAN_POINT ( 'NONE',  ( 0.0000000000000000000, 0.0000000000000000000, 0.0000000000000000000 ) ) ;
#179 = PLANE ( 'NONE',  #33 ) ;
#180 = CIRCLE ( 'NONE', #17, 5.500000000000000000 ) ;
#181 = PLANE ( 'NONE',  #174 ) ;
#182 = CALENDAR_DATE ( 2021, 12, 11 ) ;
#183 =( NAMED_UNIT ( * ) SI_UNIT ( $, .STERADIAN. ) SOLID_ANGLE_UNIT ( ) );
#184 = CARTESIAN_POINT ( 'NONE',  ( 0.0000000000000000000, 6.000000000000000000, 0.0000000000000000000 ) ) ;
#185 = CLOSED_SHELL ( 'NONE', ( #142, #112, #156 ) ) ;
#186 = EDGE_LOOP ( 'NONE', ( #84 ) ) ;
#187 = APPROVAL_PERSON_ORGANIZATION ( #11, #44, #104 ) ;
#188 = DATE_AND_TIME ( #65, #145 ) ;
#189 = EDGE_CURVE ( 'NONE', #139, #139, #86, .T. ) ;
#190 = ADVANCED_FACE ( 'NONE', ( #2 ), #179, .F. ) ;
#191 = VERTEX_POINT ( 'NONE', #137 ) ;
#192 = ORIENTED_EDGE ( 'NONE', *, *, #89, .T. ) ;
#193 = CARTESIAN_POINT ( 'NONE',  ( 1.047444401652940007E-13, 4.499279347985566802E-32, 30.00000000000000000 ) ) ;
#194 = ORIENTED_EDGE ( 'NONE', *, *, #15, .T. ) ;
#195 = DIRECTION ( 'NONE',  ( -3.491481338843133355E-15, 1.224646799147353207E-16, -1.000000000000000000 ) ) ;
#196 = APPROVAL_PERSON_ORGANIZATION ( #152, #82, #151 ) ;
#197 = VERTEX_POINT ( 'NONE', #125 ) ;
#198 = ADVANCED_FACE ( 'NONE', ( #160, #52 ), #136, .T. ) ;
#199 = DATE_AND_TIME ( #25, #18 ) ;
#200 = PERSON ( 'UNSPECIFIED', 'UNSPECIFIED', 'UNSPECIFIED', ('UNSPECIFIED'), ('UNSPECIFIED'), ('UNSPECIFIED') ) ;
#201 = ORIENTED_EDGE ( 'NONE', *, *, #15, .F. ) ;
#202 = LOCAL_TIME ( 11, 34, 58.00000000000000000, #14 ) ;
#203 = ADVANCED_FACE ( 'NONE', ( #6, #83 ), #141, .T. ) ;
ENDSEC;
END-ISO-10303-21;
