ISO-10303-21;
HEADER;
FILE_DESCRIPTION (( 'STEP AP203' ),
    '1' );
FILE_NAME ('57109.step',
    '2021-11-12T10:34:58',
    ( '' ),
    ( '' ),
    'SwSTEP 2.0',
    'SolidWorks 2019',
    '' );
FILE_SCHEMA (( 'CONFIG_CONTROL_DESIGN' ));
ENDSEC;

DATA;
#1 = DIRECTION ( 'NONE',  ( 3.491481338843133355E-15, -1.224646799147353207E-16, 1.000000000000000000 ) ) ;
#2 = ORIENTED_EDGE ( 'NONE', *, *, #86, .F. ) ;
#3 = APPROVAL_DATE_TIME ( #88, #152 ) ;
#4 = CC_DESIGN_SECURITY_CLASSIFICATION ( #96, ( #181 ) ) ;
#5 = CARTESIAN_POINT ( 'NONE',  ( 2.531323970661271619E-13, 5.499999999999976907, 72.50000000000000000 ) ) ;
#6 = DIRECTION ( 'NONE',  ( 0.0000000000000000000, 1.000000000000000000, 0.0000000000000000000 ) ) ;
#7 = CARTESIAN_POINT ( 'NONE',  ( -2.351707295243326971E-30, 8.248678804640216843E-32, -6.735557395310442023E-16 ) ) ;
#8 = DIRECTION ( 'NONE',  ( 0.0000000000000000000, 1.000000000000000000, 0.0000000000000000000 ) ) ;
#9 = CC_DESIGN_PERSON_AND_ORGANIZATION_ASSIGNMENT ( #145, #66, ( #180 ) ) ;
#10 = AXIS2_PLACEMENT_3D ( 'NONE', #103, #75, #135 ) ;
#11 = CC_DESIGN_DATE_AND_TIME_ASSIGNMENT ( #123, #171, ( #93 ) ) ;
#12 = CC_DESIGN_APPROVAL ( #166, ( #93 ) ) ;
#13 = PERSON_AND_ORGANIZATION_ROLE ( 'creator' ) ;
#14 = PERSON_AND_ORGANIZATION ( #32, #80 ) ;
#15 = APPROVAL_DATE_TIME ( #40, #142 ) ;
#16 = AXIS2_PLACEMENT_3D ( 'NONE', #177, #132, #6 ) ;
#17 = CARTESIAN_POINT ( 'NONE',  ( 2.531323970661271619E-13, -8.878689293818309285E-15, 72.50000000000000000 ) ) ;
#18 = PERSON_AND_ORGANIZATION ( #32, #80 ) ;
#19 = ORIENTED_EDGE ( 'NONE', *, *, #182, .F. ) ;
#20 = PERSON_AND_ORGANIZATION ( #32, #80 ) ;
#21 = EDGE_LOOP ( 'NONE', ( #2 ) ) ;
#22 = CC_DESIGN_PERSON_AND_ORGANIZATION_ASSIGNMENT ( #20, #143, ( #181 ) ) ;
#23 = CONICAL_SURFACE ( 'NONE', #58, 4.999999999999999112, 0.7853981633974482790 ) ;
#24 = DIRECTION ( 'NONE',  ( 4.275831445896958607E-31, 1.000000000000000000, 1.224646799147352961E-16 ) ) ;
#25 = CALENDAR_DATE ( 2021, 12, 11 ) ;
#26 = LOCAL_TIME ( 11, 34, 58.00000000000000000, #175 ) ;
#27 = CYLINDRICAL_SURFACE ( 'NONE', #34, 5.500000000000000000 ) ;
#28 = CARTESIAN_POINT ( 'NONE',  ( 0.0000000000000000000, 0.0000000000000000000, 0.0000000000000000000 ) ) ;
#29 = ADVANCED_FACE ( 'NONE', ( #59, #116 ), #174, .T. ) ;
#30 = VERTEX_POINT ( 'NONE', #5 ) ;
#31 = PRODUCT_DEFINITION_SHAPE ( 'NONE', 'NONE',  #93 ) ;
#32 = PERSON ( 'UNSPECIFIED', 'UNSPECIFIED', 'UNSPECIFIED', ('UNSPECIFIED'), ('UNSPECIFIED'), ('UNSPECIFIED') ) ;
#33 = CC_DESIGN_PERSON_AND_ORGANIZATION_ASSIGNMENT ( #125, #13, ( #93 ) ) ;
#34 = AXIS2_PLACEMENT_3D ( 'NONE', #28, #101, #91 ) ;
#35 = CARTESIAN_POINT ( 'NONE',  ( 1.047444401652940007E-13, 5.499999999999996447, 30.00000000000000000 ) ) ;
#36 =( NAMED_UNIT ( * ) SI_UNIT ( $, .STERADIAN. ) SOLID_ANGLE_UNIT ( ) );
#37 = LOCAL_TIME ( 11, 34, 58.00000000000000000, #38 ) ;
#38 = COORDINATED_UNIVERSAL_TIME_OFFSET ( 1, 0, .AHEAD. ) ;
#39 = CARTESIAN_POINT ( 'NONE',  ( 0.0000000000000000000, 0.0000000000000000000, 0.0000000000000000000 ) ) ;
#40 = DATE_AND_TIME ( #124, #26 ) ;
#41 = PRODUCT_RELATED_PRODUCT_CATEGORY ( 'detail', '', ( #180 ) ) ;
#42 = CARTESIAN_POINT ( 'NONE',  ( -1.175853647621663485E-30, 4.124339402320108422E-32, -3.367778697655221012E-16 ) ) ;
#43 = SECURITY_CLASSIFICATION_LEVEL ( 'unclassified' ) ;
#44 = DIRECTION ( 'NONE',  ( 0.0000000000000000000, 1.000000000000000000, 0.0000000000000000000 ) ) ;
#45 = MECHANICAL_CONTEXT ( 'NONE', #141, 'mechanical' ) ;
#46 = ORIENTED_EDGE ( 'NONE', *, *, #107, .T. ) ;
#47 = PLANE ( 'NONE',  #10 ) ;
#48 = CLOSED_SHELL ( 'NONE', ( #62, #155, #55 ) ) ;
#49 = MANIFOLD_SOLID_BREP ( 'Corps-Déplacer/Copier1[1]', #109 ) ;
#50 = CARTESIAN_POINT ( 'NONE',  ( 1.047444401652940007E-13, 4.124339402320102948E-32, 30.00000000000000000 ) ) ;
#51 = COORDINATED_UNIVERSAL_TIME_OFFSET ( 1, 0, .AHEAD. ) ;
#52 = LOCAL_TIME ( 11, 34, 58.00000000000000000, #201 ) ;
#53 = LOCAL_TIME ( 11, 34, 58.00000000000000000, #51 ) ;
#54 = AXIS2_PLACEMENT_3D ( 'NONE', #50, #193, #63 ) ;
#55 = ADVANCED_FACE ( 'NONE', ( #87 ), #85, .T. ) ;
#56 = APPROVAL_STATUS ( 'not_yet_approved' ) ;
#57 = EDGE_LOOP ( 'NONE', ( #144 ) ) ;
#58 = AXIS2_PLACEMENT_3D ( 'NONE', #138, #195, #8 ) ;
#59 = FACE_OUTER_BOUND ( 'NONE', #57, .T. ) ;
#60 = EDGE_LOOP ( 'NONE', ( #131 ) ) ;
#61 = FACE_OUTER_BOUND ( 'NONE', #159, .T. ) ;
#62 = ADVANCED_FACE ( 'NONE', ( #71 ), #112, .T. ) ;
#63 = DIRECTION ( 'NONE',  ( -4.275831445896958607E-31, -1.000000000000000000, -1.224646799147353207E-16 ) ) ;
#64 = AXIS2_PLACEMENT_3D ( 'NONE', #17, #83, #44 ) ;
#65 = CARTESIAN_POINT ( 'NONE',  ( 2.548781377355486718E-13, 4.999999999999990230, 72.99999999999998579 ) ) ;
#66 = PERSON_AND_ORGANIZATION_ROLE ( 'design_owner' ) ;
#67 = CALENDAR_DATE ( 2021, 12, 11 ) ;
#68 = APPROVAL_ROLE ( '' ) ;
#69 = PERSON_AND_ORGANIZATION_ROLE ( 'classification_officer' ) ;
#70 = EDGE_LOOP ( 'NONE', ( #46 ) ) ;
#71 = FACE_OUTER_BOUND ( 'NONE', #148, .T. ) ;
#72 = ORIENTED_EDGE ( 'NONE', *, *, #149, .F. ) ;
#73 = SHAPE_DEFINITION_REPRESENTATION ( #31, #192 ) ;
#74 = VERTEX_POINT ( 'NONE', #77 ) ;
#75 = DIRECTION ( 'NONE',  ( -3.491481338843133355E-15, 1.224646799147353207E-16, -1.000000000000000000 ) ) ;
#76 = DIRECTION ( 'NONE',  ( -3.491481338843133355E-15, 1.224646799147353207E-16, -1.000000000000000000 ) ) ;
#77 = CARTESIAN_POINT ( 'NONE',  ( 1.047444401652940007E-13, 5.499999999999996447, 30.00000000000000000 ) ) ;
#78 = AXIS2_PLACEMENT_3D ( 'NONE', #106, #76, #167 ) ;
#79 =( NAMED_UNIT ( * ) PLANE_ANGLE_UNIT ( ) SI_UNIT ( $, .RADIAN. ) );
#80 = ORGANIZATION ( 'UNSPECIFIED', 'UNSPECIFIED', '' ) ;
#81 = APPROVAL_STATUS ( 'not_yet_approved' ) ;
#82 = PERSON_AND_ORGANIZATION_ROLE ( 'creator' ) ;
#83 = DIRECTION ( 'NONE',  ( -3.491481338843133355E-15, 1.224646799147353207E-16, -1.000000000000000000 ) ) ;
#84 = ORIENTED_EDGE ( 'NONE', *, *, #163, .T. ) ;
#85 = PLANE ( 'NONE',  #102 ) ;
#86 = EDGE_CURVE ( 'NONE', #30, #30, #122, .T. ) ;
#87 = FACE_OUTER_BOUND ( 'NONE', #60, .T. ) ;
#88 = DATE_AND_TIME ( #25, #53 ) ;
#89 = FACE_BOUND ( 'NONE', #128, .T. ) ;
#90 = APPROVAL_STATUS ( 'not_yet_approved' ) ;
#91 = DIRECTION ( 'NONE',  ( 4.275831445896957731E-31, 1.000000000000000000, 1.224646799147353207E-16 ) ) ;
#92 = CIRCLE ( 'NONE', #136, 4.999999999999999112 ) ;
#93 = PRODUCT_DEFINITION ( 'UNKNOWN', '', #181, #168 ) ;
#94 = APPROVAL_PERSON_ORGANIZATION ( #14, #142, #68 ) ;
#95 = CALENDAR_DATE ( 2021, 12, 11 ) ;
#96 = SECURITY_CLASSIFICATION ( '', '', #43 ) ;
#97 = CARTESIAN_POINT ( 'NONE',  ( 1.047444401652940007E-13, 4.124339402320102948E-32, 30.00000000000000000 ) ) ;
#98 = DIRECTION ( 'NONE',  ( 0.0000000000000000000, 0.0000000000000000000, 1.000000000000000000 ) ) ;
#99 = ORIENTED_EDGE ( 'NONE', *, *, #182, .T. ) ;
#100 = DIRECTION ( 'NONE',  ( -3.491481338843133355E-15, 1.224646799147353207E-16, -1.000000000000000000 ) ) ;
#101 = DIRECTION ( 'NONE',  ( -3.491481338843133355E-15, 1.224646799147353207E-16, -1.000000000000000000 ) ) ;
#102 = AXIS2_PLACEMENT_3D ( 'NONE', #97, #1, #187 ) ;
#103 = CARTESIAN_POINT ( 'NONE',  ( 2.548781377355486718E-13, 1.737032836375160175E-30, 72.99999999999998579 ) ) ;
#104 = DIRECTION ( 'NONE',  ( -3.491481338843133355E-15, 1.224646799147353207E-16, -1.000000000000000000 ) ) ;
#105 = APPROVAL_PERSON_ORGANIZATION ( #186, #166, #110 ) ;
#106 = CARTESIAN_POINT ( 'NONE',  ( 1.047444401652940007E-13, -3.673940397442059178E-15, 30.00000000000000000 ) ) ;
#107 = EDGE_CURVE ( 'NONE', #74, #74, #170, .T. ) ;
#108 = APPLICATION_PROTOCOL_DEFINITION ( 'international standard', 'config_control_design', 1994, #141 ) ;
#109 = CLOSED_SHELL ( 'NONE', ( #120, #29, #191, #121 ) ) ;
#110 = APPROVAL_ROLE ( '' ) ;
#111 = LOCAL_TIME ( 11, 34, 58.00000000000000000, #146 ) ;
#112 = PLANE ( 'NONE',  #154 ) ;
#113 = DIRECTION ( 'NONE',  ( 1.000000000000000000, 0.0000000000000000000, 0.0000000000000000000 ) ) ;
#114 = DIRECTION ( 'NONE',  ( -3.491481338843133355E-15, 1.224646799147353207E-16, -1.000000000000000000 ) ) ;
#115 = PERSON_AND_ORGANIZATION ( #32, #80 ) ;
#116 = FACE_OUTER_BOUND ( 'NONE', #133, .T. ) ;
#117 = FACE_OUTER_BOUND ( 'NONE', #147, .T. ) ;
#118 = DIRECTION ( 'NONE',  ( 0.0000000000000000000, 1.000000000000000000, 0.0000000000000000000 ) ) ;
#119 = AXIS2_PLACEMENT_3D ( 'NONE', #126, #114, #24 ) ;
#120 = ADVANCED_FACE ( 'NONE', ( #179 ), #134, .F. ) ;
#121 = ADVANCED_FACE ( 'NONE', ( #117 ), #47, .F. ) ;
#122 = CIRCLE ( 'NONE', #64, 5.499999999999985789 ) ;
#123 = DATE_AND_TIME ( #67, #52 ) ;
#124 = CALENDAR_DATE ( 2021, 12, 11 ) ;
#125 = PERSON_AND_ORGANIZATION ( #32, #80 ) ;
#126 = CARTESIAN_POINT ( 'NONE',  ( 0.0000000000000000000, 0.0000000000000000000, 0.0000000000000000000 ) ) ;
#127 = CALENDAR_DATE ( 2021, 12, 11 ) ;
#128 = EDGE_LOOP ( 'NONE', ( #190 ) ) ;
#129 = APPLICATION_PROTOCOL_DEFINITION ( 'international standard', 'config_control_design', 1994, #183 ) ;
#130 = DATE_TIME_ROLE ( 'classification_date' ) ;
#131 = ORIENTED_EDGE ( 'NONE', *, *, #163, .F. ) ;
#132 = DIRECTION ( 'NONE',  ( -3.491481338843133355E-15, 1.224646799147353207E-16, -1.000000000000000000 ) ) ;
#133 = EDGE_LOOP ( 'NONE', ( #161 ) ) ;
#134 = PLANE ( 'NONE',  #54 ) ;
#135 = DIRECTION ( 'NONE',  ( 4.275831445896958607E-31, 1.000000000000000000, 1.224646799147353207E-16 ) ) ;
#136 = AXIS2_PLACEMENT_3D ( 'NONE', #194, #100, #118 ) ;
#137 = FACE_OUTER_BOUND ( 'NONE', #21, .T. ) ;
#138 = CARTESIAN_POINT ( 'NONE',  ( 2.548781377355486718E-13, -8.939921633775675282E-15, 72.99999999999998579 ) ) ;
#139 = CC_DESIGN_APPROVAL ( #152, ( #96 ) ) ;
#140 = DATE_AND_TIME ( #95, #37 ) ;
#141 = APPLICATION_CONTEXT ( 'configuration controlled 3d designs of mechanical parts and assemblies' ) ;
#142 = APPROVAL ( #81, 'UNSPECIFIED' ) ;
#143 = PERSON_AND_ORGANIZATION_ROLE ( 'design_supplier' ) ;
#144 = ORIENTED_EDGE ( 'NONE', *, *, #86, .T. ) ;
#145 = PERSON_AND_ORGANIZATION ( #32, #80 ) ;
#146 = COORDINATED_UNIVERSAL_TIME_OFFSET ( 1, 0, .AHEAD. ) ;
#147 = EDGE_LOOP ( 'NONE', ( #72 ) ) ;
#148 = EDGE_LOOP ( 'NONE', ( #99 ) ) ;
#149 = EDGE_CURVE ( 'NONE', #196, #196, #92, .T. ) ;
#150 = APPROVAL_ROLE ( '' ) ;
#151 = CC_DESIGN_DATE_AND_TIME_ASSIGNMENT ( #188, #130, ( #96 ) ) ;
#152 = APPROVAL ( #90, 'UNSPECIFIED' ) ;
#153 = CARTESIAN_POINT ( 'NONE',  ( 0.0000000000000000000, 5.500000000000000000, 0.0000000000000000000 ) ) ;
#154 = AXIS2_PLACEMENT_3D ( 'NONE', #42, #160, #176 ) ;
#155 = ADVANCED_FACE ( 'NONE', ( #61, #197 ), #27, .T. ) ;
#156 = APPROVAL_DATE_TIME ( #140, #166 ) ;
#157 = AXIS2_PLACEMENT_3D ( 'NONE', #7, #104, #165 ) ;
#158 = PERSON_AND_ORGANIZATION ( #32, #80 ) ;
#159 = EDGE_LOOP ( 'NONE', ( #84 ) ) ;
#160 = DIRECTION ( 'NONE',  ( -3.491481338843133355E-15, 1.224646799147353207E-16, -1.000000000000000000 ) ) ;
#161 = ORIENTED_EDGE ( 'NONE', *, *, #107, .F. ) ;
#162 = CIRCLE ( 'NONE', #78, 5.500000000000000000 ) ;
#163 = EDGE_CURVE ( 'NONE', #198, #198, #162, .T. ) ;
#164 =( GEOMETRIC_REPRESENTATION_CONTEXT ( 3 ) GLOBAL_UNCERTAINTY_ASSIGNED_CONTEXT ( ( #199 ) ) GLOBAL_UNIT_ASSIGNED_CONTEXT ( ( #184, #79, #36 ) ) REPRESENTATION_CONTEXT ( 'NONE', 'WORKASPACE' ) );
#165 = DIRECTION ( 'NONE',  ( 4.275831445896957731E-31, 1.000000000000000000, 1.224646799147353207E-16 ) ) ;
#166 = APPROVAL ( #56, 'UNSPECIFIED' ) ;
#167 = DIRECTION ( 'NONE',  ( 0.0000000000000000000, 1.000000000000000000, 0.0000000000000000000 ) ) ;
#168 = DESIGN_CONTEXT ( 'detailed design', #183, 'design' ) ;
#169 = VERTEX_POINT ( 'NONE', #153 ) ;
#170 = CIRCLE ( 'NONE', #16, 5.500000000000000000 ) ;
#171 = DATE_TIME_ROLE ( 'creation_date' ) ;
#172 = APPROVAL_PERSON_ORGANIZATION ( #115, #152, #150 ) ;
#173 = MANIFOLD_SOLID_BREP ( 'Corps-Déplacer/Copier1[2]', #48 ) ;
#174 = CYLINDRICAL_SURFACE ( 'NONE', #119, 5.499999999999992895 ) ;
#175 = COORDINATED_UNIVERSAL_TIME_OFFSET ( 1, 0, .AHEAD. ) ;
#176 = DIRECTION ( 'NONE',  ( 4.275831445896958607E-31, 1.000000000000000000, 1.224646799147353207E-16 ) ) ;
#177 = CARTESIAN_POINT ( 'NONE',  ( 1.047444401652940007E-13, -3.673940397442059178E-15, 30.00000000000000000 ) ) ;
#178 = CC_DESIGN_PERSON_AND_ORGANIZATION_ASSIGNMENT ( #158, #82, ( #181 ) ) ;
#179 = FACE_OUTER_BOUND ( 'NONE', #70, .T. ) ;
#180 = PRODUCT ( '57109', '57109', '', ( #45 ) ) ;
#181 = PRODUCT_DEFINITION_FORMATION_WITH_SPECIFIED_SOURCE ( 'ANY', '', #180, .NOT_KNOWN. ) ;
#182 = EDGE_CURVE ( 'NONE', #169, #169, #202, .T. ) ;
#183 = APPLICATION_CONTEXT ( 'configuration controlled 3d designs of mechanical parts and assemblies' ) ;
#184 =( LENGTH_UNIT ( ) NAMED_UNIT ( * ) SI_UNIT ( .MILLI., .METRE. ) );
#185 = CC_DESIGN_PERSON_AND_ORGANIZATION_ASSIGNMENT ( #18, #69, ( #96 ) ) ;
#186 = PERSON_AND_ORGANIZATION ( #32, #80 ) ;
#187 = DIRECTION ( 'NONE',  ( -4.275831445896958607E-31, -1.000000000000000000, -1.224646799147353207E-16 ) ) ;
#188 = DATE_AND_TIME ( #127, #111 ) ;
#189 = AXIS2_PLACEMENT_3D ( 'NONE', #39, #98, #113 ) ;
#190 = ORIENTED_EDGE ( 'NONE', *, *, #149, .T. ) ;
#191 = ADVANCED_FACE ( 'NONE', ( #137, #89 ), #23, .T. ) ;
#192 = ADVANCED_BREP_SHAPE_REPRESENTATION ( '57109', ( #49, #173, #189 ), #164 ) ;
#193 = DIRECTION ( 'NONE',  ( 3.491481338843133355E-15, -1.224646799147353207E-16, 1.000000000000000000 ) ) ;
#194 = CARTESIAN_POINT ( 'NONE',  ( 2.548781377355486718E-13, -8.939921633775675282E-15, 72.99999999999998579 ) ) ;
#195 = DIRECTION ( 'NONE',  ( -3.491481338843133355E-15, 1.224646799147353207E-16, -1.000000000000000000 ) ) ;
#196 = VERTEX_POINT ( 'NONE', #65 ) ;
#197 = FACE_OUTER_BOUND ( 'NONE', #203, .T. ) ;
#198 = VERTEX_POINT ( 'NONE', #35 ) ;
#199 = UNCERTAINTY_MEASURE_WITH_UNIT (LENGTH_MEASURE( 1.000000000000000082E-05 ), #184, 'distance_accuracy_value', 'NONE');
#200 = CC_DESIGN_APPROVAL ( #142, ( #181 ) ) ;
#201 = COORDINATED_UNIVERSAL_TIME_OFFSET ( 1, 0, .AHEAD. ) ;
#202 = CIRCLE ( 'NONE', #157, 5.500000000000000000 ) ;
#203 = EDGE_LOOP ( 'NONE', ( #19 ) ) ;
ENDSEC;
END-ISO-10303-21;
