ISO-10303-21;
HEADER;
FILE_DESCRIPTION (( 'STEP AP203' ),
    '1' );
FILE_NAME ('57108.step',
    '2021-11-12T10:34:57',
    ( '' ),
    ( '' ),
    'SwSTEP 2.0',
    'SolidWorks 2019',
    '' );
FILE_SCHEMA (( 'CONFIG_CONTROL_DESIGN' ));
ENDSEC;

DATA;
#1 = CARTESIAN_POINT ( 'NONE',  ( 0.0000000000000000000, 0.0000000000000000000, 0.0000000000000000000 ) ) ;
#2 = ORIENTED_EDGE ( 'NONE', *, *, #9, .T. ) ;
#3 = CARTESIAN_POINT ( 'NONE',  ( 1.047444401652940007E-13, 3.749399456654638546E-32, 30.00000000000000000 ) ) ;
#4 = EDGE_LOOP ( 'NONE', ( #192 ) ) ;
#5 = EDGE_LOOP ( 'NONE', ( #162 ) ) ;
#6 = APPLICATION_CONTEXT ( 'configuration controlled 3d designs of mechanical parts and assemblies' ) ;
#7 = APPROVAL_STATUS ( 'not_yet_approved' ) ;
#8 = APPROVAL ( #170, 'UNSPECIFIED' ) ;
#9 = EDGE_CURVE ( 'NONE', #44, #44, #45, .T. ) ;
#10 = DATE_AND_TIME ( #151, #119 ) ;
#11 = AXIS2_PLACEMENT_3D ( 'NONE', #53, #179, #107 ) ;
#12 = DIRECTION ( 'NONE',  ( 4.275831445896958607E-31, 1.000000000000000000, 1.224646799147353207E-16 ) ) ;
#13 = DIRECTION ( 'NONE',  ( 4.275831445896958607E-31, 1.000000000000000000, 1.224646799147353207E-16 ) ) ;
#14 = CC_DESIGN_PERSON_AND_ORGANIZATION_ASSIGNMENT ( #169, #28, ( #70 ) ) ;
#15 = FACE_OUTER_BOUND ( 'NONE', #144, .T. ) ;
#16 = APPROVAL_PERSON_ORGANIZATION ( #178, #127, #125 ) ;
#17 = PLANE ( 'NONE',  #189 ) ;
#18 = MANIFOLD_SOLID_BREP ( 'Corps-Déplacer/Copier1[2]', #61 ) ;
#19 = EDGE_LOOP ( 'NONE', ( #2 ) ) ;
#20 = CARTESIAN_POINT ( 'NONE',  ( 0.0000000000000000000, 5.000000000000000000, 0.0000000000000000000 ) ) ;
#21 = CC_DESIGN_APPROVAL ( #8, ( #48 ) ) ;
#22 =( LENGTH_UNIT ( ) NAMED_UNIT ( * ) SI_UNIT ( .MILLI., .METRE. ) );
#23 = CC_DESIGN_PERSON_AND_ORGANIZATION_ASSIGNMENT ( #167, #24, ( #106 ) ) ;
#24 = PERSON_AND_ORGANIZATION_ROLE ( 'design_supplier' ) ;
#25 = ADVANCED_FACE ( 'NONE', ( #193 ), #51, .F. ) ;
#26 = APPROVAL_PERSON_ORGANIZATION ( #78, #146, #103 ) ;
#27 = VERTEX_POINT ( 'NONE', #55 ) ;
#28 = PERSON_AND_ORGANIZATION_ROLE ( 'creator' ) ;
#29 = APPROVAL_ROLE ( '' ) ;
#30 = FACE_OUTER_BOUND ( 'NONE', #190, .T. ) ;
#31 = DIRECTION ( 'NONE',  ( 4.275831445896958607E-31, 1.000000000000000000, 1.224646799147353207E-16 ) ) ;
#32 = CC_DESIGN_PERSON_AND_ORGANIZATION_ASSIGNMENT ( #137, #199, ( #117 ) ) ;
#33 = DIRECTION ( 'NONE',  ( 0.0000000000000000000, 1.000000000000000000, 0.0000000000000000000 ) ) ;
#34 = DIRECTION ( 'NONE',  ( 3.491481338843133355E-15, -1.224646799147353207E-16, 1.000000000000000000 ) ) ;
#35 = AXIS2_PLACEMENT_3D ( 'NONE', #158, #64, #131 ) ;
#36 = DIRECTION ( 'NONE',  ( 0.0000000000000000000, 1.000000000000000000, 0.0000000000000000000 ) ) ;
#37 = APPROVAL_DATE_TIME ( #181, #127 ) ;
#38 = LOCAL_TIME ( 11, 34, 57.00000000000000000, #165 ) ;
#39 = VERTEX_POINT ( 'NONE', #20 ) ;
#40 = AXIS2_PLACEMENT_3D ( 'NONE', #184, #34, #62 ) ;
#41 = APPLICATION_PROTOCOL_DEFINITION ( 'international standard', 'config_control_design', 1994, #197 ) ;
#42 = COORDINATED_UNIVERSAL_TIME_OFFSET ( 1, 0, .AHEAD. ) ;
#43 = EDGE_CURVE ( 'NONE', #148, #148, #142, .T. ) ;
#44 = VERTEX_POINT ( 'NONE', #140 ) ;
#45 = CIRCLE ( 'NONE', #77, 4.500000000000005329 ) ;
#46 = CARTESIAN_POINT ( 'NONE',  ( 1.047444401652940007E-13, -3.673940397442059178E-15, 30.00000000000000000 ) ) ;
#47 = CARTESIAN_POINT ( 'NONE',  ( 2.496409157272841422E-13, -8.756224613903577293E-15, 71.50000000000002842 ) ) ;
#48 = SECURITY_CLASSIFICATION ( '', '', #89 ) ;
#49 = CARTESIAN_POINT ( 'NONE',  ( 2.513866563967056016E-13, -8.817456953860941711E-15, 72.00000000000000000 ) ) ;
#50 = ADVANCED_FACE ( 'NONE', ( #187 ), #171, .F. ) ;
#51 = PLANE ( 'NONE',  #40 ) ;
#52 = CARTESIAN_POINT ( 'NONE',  ( 1.047444401652940007E-13, 4.999999999999996447, 30.00000000000000000 ) ) ;
#53 = CARTESIAN_POINT ( 'NONE',  ( 0.0000000000000000000, 0.0000000000000000000, 0.0000000000000000000 ) ) ;
#54 = CALENDAR_DATE ( 2021, 12, 11 ) ;
#55 = CARTESIAN_POINT ( 'NONE',  ( 2.496409157272841422E-13, 4.999999999999990230, 71.50000000000002842 ) ) ;
#56 = APPLICATION_PROTOCOL_DEFINITION ( 'international standard', 'config_control_design', 1994, #6 ) ;
#57 = CALENDAR_DATE ( 2021, 12, 11 ) ;
#58 = FACE_OUTER_BOUND ( 'NONE', #66, .T. ) ;
#59 = PERSON ( 'UNSPECIFIED', 'UNSPECIFIED', 'UNSPECIFIED', ('UNSPECIFIED'), ('UNSPECIFIED'), ('UNSPECIFIED') ) ;
#60 = DIRECTION ( 'NONE',  ( -3.491481338843133355E-15, 1.224646799147353207E-16, -1.000000000000000000 ) ) ;
#61 = CLOSED_SHELL ( 'NONE', ( #105, #175, #163 ) ) ;
#62 = DIRECTION ( 'NONE',  ( -4.275831445896958607E-31, -1.000000000000000000, -1.224646799147353207E-16 ) ) ;
#63 = ORIENTED_EDGE ( 'NONE', *, *, #156, .F. ) ;
#64 = DIRECTION ( 'NONE',  ( -3.491481338843133355E-15, 1.224646799147353207E-16, -1.000000000000000000 ) ) ;
#65 = ORIENTED_EDGE ( 'NONE', *, *, #43, .F. ) ;
#66 = EDGE_LOOP ( 'NONE', ( #63 ) ) ;
#67 = CC_DESIGN_PERSON_AND_ORGANIZATION_ASSIGNMENT ( #108, #120, ( #106 ) ) ;
#68 = LOCAL_TIME ( 11, 34, 57.00000000000000000, #201 ) ;
#69 = EDGE_LOOP ( 'NONE', ( #132 ) ) ;
#70 = PRODUCT_DEFINITION ( 'UNKNOWN', '', #106, #122 ) ;
#71 = DATE_TIME_ROLE ( 'classification_date' ) ;
#72 = EDGE_LOOP ( 'NONE', ( #176 ) ) ;
#73 = DATE_AND_TIME ( #101, #38 ) ;
#74 = AXIS2_PLACEMENT_3D ( 'NONE', #141, #60, #12 ) ;
#75 = UNCERTAINTY_MEASURE_WITH_UNIT (LENGTH_MEASURE( 1.000000000000000082E-05 ), #22, 'distance_accuracy_value', 'NONE');
#76 =( NAMED_UNIT ( * ) PLANE_ANGLE_UNIT ( ) SI_UNIT ( $, .RADIAN. ) );
#77 = AXIS2_PLACEMENT_3D ( 'NONE', #49, #116, #36 ) ;
#78 = PERSON_AND_ORGANIZATION ( #59, #83 ) ;
#79 = AXIS2_PLACEMENT_3D ( 'NONE', #92, #172, #173 ) ;
#80 = FACE_OUTER_BOUND ( 'NONE', #69, .T. ) ;
#81 = DIRECTION ( 'NONE',  ( -3.491481338843133355E-15, 1.224646799147353207E-16, -1.000000000000000000 ) ) ;
#82 = CYLINDRICAL_SURFACE ( 'NONE', #135, 4.999999999999999112 ) ;
#83 = ORGANIZATION ( 'UNSPECIFIED', 'UNSPECIFIED', '' ) ;
#84 = DIRECTION ( 'NONE',  ( 0.0000000000000000000, 1.000000000000000000, 0.0000000000000000000 ) ) ;
#85 = EDGE_CURVE ( 'NONE', #195, #195, #185, .T. ) ;
#86 = CARTESIAN_POINT ( 'NONE',  ( 1.047444401652940007E-13, 4.999999999999996447, 30.00000000000000000 ) ) ;
#87 = CC_DESIGN_SECURITY_CLASSIFICATION ( #48, ( #106 ) ) ;
#88 = CONICAL_SURFACE ( 'NONE', #115, 4.500000000000005329, 0.7853981633974691512 ) ;
#89 = SECURITY_CLASSIFICATION_LEVEL ( 'unclassified' ) ;
#90 = COORDINATED_UNIVERSAL_TIME_OFFSET ( 1, 0, .AHEAD. ) ;
#91 = APPROVAL_DATE_TIME ( #157, #8 ) ;
#92 = CARTESIAN_POINT ( 'NONE',  ( 2.513866563967056016E-13, 3.374459510989171407E-32, 72.00000000000000000 ) ) ;
#93 = COORDINATED_UNIVERSAL_TIME_OFFSET ( 1, 0, .AHEAD. ) ;
#94 = DIRECTION ( 'NONE',  ( 3.491481338843133355E-15, -1.224646799147353207E-16, 1.000000000000000000 ) ) ;
#95 = DIRECTION ( 'NONE',  ( -3.491481338843133355E-15, 1.224646799147353207E-16, -1.000000000000000000 ) ) ;
#96 = DIRECTION ( 'NONE',  ( 0.0000000000000000000, 1.000000000000000000, 0.0000000000000000000 ) ) ;
#97 = ORIENTED_EDGE ( 'NONE', *, *, #9, .F. ) ;
#98 = CIRCLE ( 'NONE', #180, 4.999999999999999112 ) ;
#99 = EDGE_CURVE ( 'NONE', #39, #39, #100, .T. ) ;
#100 = CIRCLE ( 'NONE', #200, 5.000000000000000000 ) ;
#101 = CALENDAR_DATE ( 2021, 12, 11 ) ;
#102 = DATE_TIME_ROLE ( 'creation_date' ) ;
#103 = APPROVAL_ROLE ( '' ) ;
#104 =( GEOMETRIC_REPRESENTATION_CONTEXT ( 3 ) GLOBAL_UNCERTAINTY_ASSIGNED_CONTEXT ( ( #75 ) ) GLOBAL_UNIT_ASSIGNED_CONTEXT ( ( #22, #76, #166 ) ) REPRESENTATION_CONTEXT ( 'NONE', 'WORKASPACE' ) );
#105 = ADVANCED_FACE ( 'NONE', ( #30 ), #159, .T. ) ;
#106 = PRODUCT_DEFINITION_FORMATION_WITH_SPECIFIED_SOURCE ( 'ANY', '', #117, .NOT_KNOWN. ) ;
#107 = DIRECTION ( 'NONE',  ( 1.000000000000000000, 0.0000000000000000000, 0.0000000000000000000 ) ) ;
#108 = PERSON_AND_ORGANIZATION ( #59, #83 ) ;
#109 = DIRECTION ( 'NONE',  ( 0.0000000000000000000, 1.000000000000000000, 0.0000000000000000000 ) ) ;
#110 = PRODUCT_RELATED_PRODUCT_CATEGORY ( 'detail', '', ( #117 ) ) ;
#111 = DIRECTION ( 'NONE',  ( -3.491481338843133355E-15, 1.224646799147353207E-16, -1.000000000000000000 ) ) ;
#112 = DIRECTION ( 'NONE',  ( -3.491481338843133355E-15, 1.224646799147353207E-16, -1.000000000000000000 ) ) ;
#113 = ORIENTED_EDGE ( 'NONE', *, *, #99, .T. ) ;
#114 = EDGE_LOOP ( 'NONE', ( #97 ) ) ;
#115 = AXIS2_PLACEMENT_3D ( 'NONE', #183, #81, #109 ) ;
#116 = DIRECTION ( 'NONE',  ( -3.491481338843133355E-15, 1.224646799147353207E-16, -1.000000000000000000 ) ) ;
#117 = PRODUCT ( '57108', '57108', '', ( #168 ) ) ;
#118 = PERSON_AND_ORGANIZATION_ROLE ( 'classification_officer' ) ;
#119 = LOCAL_TIME ( 11, 34, 57.00000000000000000, #90 ) ;
#120 = PERSON_AND_ORGANIZATION_ROLE ( 'creator' ) ;
#121 = CC_DESIGN_PERSON_AND_ORGANIZATION_ASSIGNMENT ( #147, #118, ( #48 ) ) ;
#122 = DESIGN_CONTEXT ( 'detailed design', #6, 'design' ) ;
#123 = ADVANCED_FACE ( 'NONE', ( #174, #15 ), #82, .T. ) ;
#124 = APPROVAL_STATUS ( 'not_yet_approved' ) ;
#125 = APPROVAL_ROLE ( '' ) ;
#126 = FACE_BOUND ( 'NONE', #19, .T. ) ;
#127 = APPROVAL ( #124, 'UNSPECIFIED' ) ;
#128 = DIRECTION ( 'NONE',  ( -3.491481338843133355E-15, 1.224646799147353207E-16, -1.000000000000000000 ) ) ;
#129 = CC_DESIGN_APPROVAL ( #127, ( #70 ) ) ;
#130 = DIRECTION ( 'NONE',  ( -4.275831445896958607E-31, -1.000000000000000000, -1.224646799147353207E-16 ) ) ;
#131 = DIRECTION ( 'NONE',  ( 4.275831445896958607E-31, 1.000000000000000000, 1.224646799147353207E-16 ) ) ;
#132 = ORIENTED_EDGE ( 'NONE', *, *, #99, .F. ) ;
#133 = CC_DESIGN_APPROVAL ( #146, ( #106 ) ) ;
#134 = EDGE_LOOP ( 'NONE', ( #65 ) ) ;
#135 = AXIS2_PLACEMENT_3D ( 'NONE', #1, #128, #13 ) ;
#136 = DATE_AND_TIME ( #57, #68 ) ;
#137 = PERSON_AND_ORGANIZATION ( #59, #83 ) ;
#138 = AXIS2_PLACEMENT_3D ( 'NONE', #46, #111, #84 ) ;
#139 = CC_DESIGN_DATE_AND_TIME_ASSIGNMENT ( #73, #71, ( #48 ) ) ;
#140 = CARTESIAN_POINT ( 'NONE',  ( 2.513866563967056016E-13, 4.499999999999997335, 72.00000000000000000 ) ) ;
#141 = CARTESIAN_POINT ( 'NONE',  ( -1.068957861474239564E-30, 3.749399456654644020E-32, -3.061616997868383141E-16 ) ) ;
#142 = CIRCLE ( 'NONE', #138, 5.000000000000000000 ) ;
#143 = CARTESIAN_POINT ( 'NONE',  ( -2.137915722948479128E-30, 7.498798913309288039E-32, -6.123233995736766282E-16 ) ) ;
#144 = EDGE_LOOP ( 'NONE', ( #188 ) ) ;
#145 = ADVANCED_BREP_SHAPE_REPRESENTATION ( '57108', ( #150, #18, #11 ), #104 ) ;
#146 = APPROVAL ( #7, 'UNSPECIFIED' ) ;
#147 = PERSON_AND_ORGANIZATION ( #59, #83 ) ;
#148 = VERTEX_POINT ( 'NONE', #52 ) ;
#149 = AXIS2_PLACEMENT_3D ( 'NONE', #155, #95, #33 ) ;
#150 = MANIFOLD_SOLID_BREP ( 'Corps-Déplacer/Copier1[1]', #161 ) ;
#151 = CALENDAR_DATE ( 2021, 12, 11 ) ;
#152 = CC_DESIGN_DATE_AND_TIME_ASSIGNMENT ( #10, #102, ( #70 ) ) ;
#153 = SHAPE_DEFINITION_REPRESENTATION ( #177, #145 ) ;
#154 = APPROVAL_PERSON_ORGANIZATION ( #198, #8, #29 ) ;
#155 = CARTESIAN_POINT ( 'NONE',  ( 1.047444401652940007E-13, -3.673940397442059178E-15, 30.00000000000000000 ) ) ;
#156 = EDGE_CURVE ( 'NONE', #27, #27, #98, .T. ) ;
#157 = DATE_AND_TIME ( #54, #164 ) ;
#158 = CARTESIAN_POINT ( 'NONE',  ( 0.0000000000000000000, 0.0000000000000000000, 0.0000000000000000000 ) ) ;
#159 = PLANE ( 'NONE',  #74 ) ;
#160 = FACE_OUTER_BOUND ( 'NONE', #134, .T. ) ;
#161 = CLOSED_SHELL ( 'NONE', ( #25, #123, #191, #50 ) ) ;
#162 = ORIENTED_EDGE ( 'NONE', *, *, #43, .T. ) ;
#163 = ADVANCED_FACE ( 'NONE', ( #160 ), #17, .T. ) ;
#164 = LOCAL_TIME ( 11, 34, 57.00000000000000000, #93 ) ;
#165 = COORDINATED_UNIVERSAL_TIME_OFFSET ( 1, 0, .AHEAD. ) ;
#166 =( NAMED_UNIT ( * ) SI_UNIT ( $, .STERADIAN. ) SOLID_ANGLE_UNIT ( ) );
#167 = PERSON_AND_ORGANIZATION ( #59, #83 ) ;
#168 = MECHANICAL_CONTEXT ( 'NONE', #197, 'mechanical' ) ;
#169 = PERSON_AND_ORGANIZATION ( #59, #83 ) ;
#170 = APPROVAL_STATUS ( 'not_yet_approved' ) ;
#171 = PLANE ( 'NONE',  #79 ) ;
#172 = DIRECTION ( 'NONE',  ( -3.491481338843133355E-15, 1.224646799147353207E-16, -1.000000000000000000 ) ) ;
#173 = DIRECTION ( 'NONE',  ( 4.275831445896958607E-31, 1.000000000000000000, 1.224646799147353207E-16 ) ) ;
#174 = FACE_OUTER_BOUND ( 'NONE', #4, .T. ) ;
#175 = ADVANCED_FACE ( 'NONE', ( #186, #80 ), #202, .T. ) ;
#176 = ORIENTED_EDGE ( 'NONE', *, *, #85, .T. ) ;
#177 = PRODUCT_DEFINITION_SHAPE ( 'NONE', 'NONE',  #70 ) ;
#178 = PERSON_AND_ORGANIZATION ( #59, #83 ) ;
#179 = DIRECTION ( 'NONE',  ( 0.0000000000000000000, 0.0000000000000000000, 1.000000000000000000 ) ) ;
#180 = AXIS2_PLACEMENT_3D ( 'NONE', #47, #112, #96 ) ;
#181 = DATE_AND_TIME ( #182, #194 ) ;
#182 = CALENDAR_DATE ( 2021, 12, 11 ) ;
#183 = CARTESIAN_POINT ( 'NONE',  ( 2.513866563967056016E-13, -8.817456953860941711E-15, 72.00000000000000000 ) ) ;
#184 = CARTESIAN_POINT ( 'NONE',  ( 1.047444401652940007E-13, 3.749399456654638546E-32, 30.00000000000000000 ) ) ;
#185 = CIRCLE ( 'NONE', #149, 5.000000000000000000 ) ;
#186 = FACE_OUTER_BOUND ( 'NONE', #5, .T. ) ;
#187 = FACE_OUTER_BOUND ( 'NONE', #114, .T. ) ;
#188 = ORIENTED_EDGE ( 'NONE', *, *, #85, .F. ) ;
#189 = AXIS2_PLACEMENT_3D ( 'NONE', #3, #94, #130 ) ;
#190 = EDGE_LOOP ( 'NONE', ( #113 ) ) ;
#191 = ADVANCED_FACE ( 'NONE', ( #58, #126 ), #88, .T. ) ;
#192 = ORIENTED_EDGE ( 'NONE', *, *, #156, .T. ) ;
#193 = FACE_OUTER_BOUND ( 'NONE', #72, .T. ) ;
#194 = LOCAL_TIME ( 11, 34, 57.00000000000000000, #42 ) ;
#195 = VERTEX_POINT ( 'NONE', #86 ) ;
#196 = APPROVAL_DATE_TIME ( #136, #146 ) ;
#197 = APPLICATION_CONTEXT ( 'configuration controlled 3d designs of mechanical parts and assemblies' ) ;
#198 = PERSON_AND_ORGANIZATION ( #59, #83 ) ;
#199 = PERSON_AND_ORGANIZATION_ROLE ( 'design_owner' ) ;
#200 = AXIS2_PLACEMENT_3D ( 'NONE', #143, #203, #31 ) ;
#201 = COORDINATED_UNIVERSAL_TIME_OFFSET ( 1, 0, .AHEAD. ) ;
#202 = CYLINDRICAL_SURFACE ( 'NONE', #35, 5.000000000000000000 ) ;
#203 = DIRECTION ( 'NONE',  ( -3.491481338843133355E-15, 1.224646799147353207E-16, -1.000000000000000000 ) ) ;
ENDSEC;
END-ISO-10303-21;
