ISO-10303-21;
HEADER;
FILE_DESCRIPTION (( 'STEP AP203' ),
    '1' );
FILE_NAME ('57107.step',
    '2021-11-12T10:34:57',
    ( '' ),
    ( '' ),
    'SwSTEP 2.0',
    'SolidWorks 2019',
    '' );
FILE_SCHEMA (( 'CONFIG_CONTROL_DESIGN' ));
ENDSEC;

DATA;
#1 = CC_DESIGN_PERSON_AND_ORGANIZATION_ASSIGNMENT ( #89, #150, ( #173 ) ) ;
#2 = ORIENTED_EDGE ( 'NONE', *, *, #52, .T. ) ;
#3 = CARTESIAN_POINT ( 'NONE',  ( 2.339292497024899474E-13, 2.999519565323707005E-32, 67.00000000000000000 ) ) ;
#4 = VERTEX_POINT ( 'NONE', #19 ) ;
#5 = EDGE_LOOP ( 'NONE', ( #112 ) ) ;
#6 = ORIENTED_EDGE ( 'NONE', *, *, #90, .F. ) ;
#7 = CALENDAR_DATE ( 2021, 12, 11 ) ;
#8 = DIRECTION ( 'NONE',  ( 0.0000000000000000000, 1.000000000000000000, 0.0000000000000000000 ) ) ;
#9 = VERTEX_POINT ( 'NONE', #115 ) ;
#10 = APPROVAL_PERSON_ORGANIZATION ( #78, #125, #38 ) ;
#11 = DIRECTION ( 'NONE',  ( -3.491481338843133355E-15, 1.224646799147353207E-16, -1.000000000000000000 ) ) ;
#12 = CIRCLE ( 'NONE', #179, 4.000000000000004441 ) ;
#13 = APPLICATION_PROTOCOL_DEFINITION ( 'international standard', 'config_control_design', 1994, #65 ) ;
#14 = FACE_OUTER_BOUND ( 'NONE', #131, .T. ) ;
#15 = PRODUCT_DEFINITION ( 'UNKNOWN', '', #173, #82 ) ;
#16 = EDGE_LOOP ( 'NONE', ( #177 ) ) ;
#17 = CC_DESIGN_APPROVAL ( #125, ( #15 ) ) ;
#18 = AXIS2_PLACEMENT_3D ( 'NONE', #45, #79, #25 ) ;
#19 = CARTESIAN_POINT ( 'NONE',  ( 0.0000000000000000000, 4.500000000000000000, 0.0000000000000000000 ) ) ;
#20 = CLOSED_SHELL ( 'NONE', ( #127, #53, #203, #37 ) ) ;
#21 = AXIS2_PLACEMENT_3D ( 'NONE', #163, #122, #43 ) ;
#22 = PERSON_AND_ORGANIZATION ( #168, #76 ) ;
#23 = DIRECTION ( 'NONE',  ( 0.0000000000000000000, 1.000000000000000000, 0.0000000000000000000 ) ) ;
#24 = APPLICATION_PROTOCOL_DEFINITION ( 'international standard', 'config_control_design', 1994, #35 ) ;
#25 = DIRECTION ( 'NONE',  ( 4.275831445896958607E-31, 1.000000000000000000, 1.224646799147352961E-16 ) ) ;
#26 = PERSON_AND_ORGANIZATION ( #168, #76 ) ;
#27 = PRODUCT_DEFINITION_SHAPE ( 'NONE', 'NONE',  #15 ) ;
#28 = CC_DESIGN_APPROVAL ( #155, ( #173 ) ) ;
#29 = PRODUCT_RELATED_PRODUCT_CATEGORY ( 'detail', '', ( #135 ) ) ;
#30 = CARTESIAN_POINT ( 'NONE',  ( -9.620620753268156427E-31, 3.374459510989179070E-32, -2.755455298081544285E-16 ) ) ;
#31 = DIRECTION ( 'NONE',  ( 4.275831445896958607E-31, 1.000000000000000000, 1.224646799147352961E-16 ) ) ;
#32 = COORDINATED_UNIVERSAL_TIME_OFFSET ( 1, 0, .AHEAD. ) ;
#33 = ORIENTED_EDGE ( 'NONE', *, *, #110, .T. ) ;
#34 = LOCAL_TIME ( 11, 34, 57.00000000000000000, #118 ) ;
#35 = APPLICATION_CONTEXT ( 'configuration controlled 3d designs of mechanical parts and assemblies' ) ;
#36 = EDGE_LOOP ( 'NONE', ( #100 ) ) ;
#37 = ADVANCED_FACE ( 'NONE', ( #176 ), #130, .F. ) ;
#38 = APPROVAL_ROLE ( '' ) ;
#39 = AXIS2_PLACEMENT_3D ( 'NONE', #186, #74, #196 ) ;
#40 = CYLINDRICAL_SURFACE ( 'NONE', #18, 4.500000000000000888 ) ;
#41 = APPROVAL_DATE_TIME ( #180, #155 ) ;
#42 = FACE_OUTER_BOUND ( 'NONE', #5, .T. ) ;
#43 = DIRECTION ( 'NONE',  ( 1.000000000000000000, 0.0000000000000000000, 0.0000000000000000000 ) ) ;
#44 = DIRECTION ( 'NONE',  ( -3.491481338843133355E-15, 1.224646799147353207E-16, -1.000000000000000000 ) ) ;
#45 = CARTESIAN_POINT ( 'NONE',  ( 0.0000000000000000000, 0.0000000000000000000, 0.0000000000000000000 ) ) ;
#46 = DATE_TIME_ROLE ( 'classification_date' ) ;
#47 = CC_DESIGN_DATE_AND_TIME_ASSIGNMENT ( #183, #73, ( #15 ) ) ;
#48 = LOCAL_TIME ( 11, 34, 57.00000000000000000, #99 ) ;
#49 = ADVANCED_BREP_SHAPE_REPRESENTATION ( '57107', ( #113, #181, #21 ), #160 ) ;
#50 = AXIS2_PLACEMENT_3D ( 'NONE', #121, #151, #167 ) ;
#51 = ORIENTED_EDGE ( 'NONE', *, *, #174, .F. ) ;
#52 = EDGE_CURVE ( 'NONE', #59, #59, #66, .T. ) ;
#53 = ADVANCED_FACE ( 'NONE', ( #14, #169 ), #40, .T. ) ;
#54 = EDGE_LOOP ( 'NONE', ( #144 ) ) ;
#55 = CARTESIAN_POINT ( 'NONE',  ( 8.728703347107833388E-14, 4.499999999999996447, 25.00000000000000000 ) ) ;
#56 = DIRECTION ( 'NONE',  ( 4.275831445896958607E-31, 1.000000000000000000, 1.224646799147352961E-16 ) ) ;
#57 = CARTESIAN_POINT ( 'NONE',  ( 2.321835090330683366E-13, 4.499999999999993783, 66.50000000000000000 ) ) ;
#58 = AXIS2_PLACEMENT_3D ( 'NONE', #107, #149, #8 ) ;
#59 = VERTEX_POINT ( 'NONE', #57 ) ;
#60 = PERSON_AND_ORGANIZATION_ROLE ( 'design_supplier' ) ;
#61 = CARTESIAN_POINT ( 'NONE',  ( -1.924124150653631285E-30, 6.748919021978358140E-32, -5.510910596163088569E-16 ) ) ;
#62 = PERSON_AND_ORGANIZATION ( #168, #76 ) ;
#63 = APPROVAL_STATUS ( 'not_yet_approved' ) ;
#64 = ADVANCED_FACE ( 'NONE', ( #178 ), #182, .T. ) ;
#65 = APPLICATION_CONTEXT ( 'configuration controlled 3d designs of mechanical parts and assemblies' ) ;
#66 = CIRCLE ( 'NONE', #103, 4.500000000000001776 ) ;
#67 = CC_DESIGN_SECURITY_CLASSIFICATION ( #198, ( #173 ) ) ;
#68 = EDGE_LOOP ( 'NONE', ( #6 ) ) ;
#69 = ORIENTED_EDGE ( 'NONE', *, *, #52, .F. ) ;
#70 = DIRECTION ( 'NONE',  ( -3.491481338843133355E-15, 1.224646799147353207E-16, -1.000000000000000000 ) ) ;
#71 = ORIENTED_EDGE ( 'NONE', *, *, #138, .F. ) ;
#72 = MECHANICAL_CONTEXT ( 'NONE', #65, 'mechanical' ) ;
#73 = DATE_TIME_ROLE ( 'creation_date' ) ;
#74 = DIRECTION ( 'NONE',  ( 3.491481338843133355E-15, -1.224646799147353207E-16, 1.000000000000000000 ) ) ;
#75 = DATE_AND_TIME ( #85, #143 ) ;
#76 = ORGANIZATION ( 'UNSPECIFIED', 'UNSPECIFIED', '' ) ;
#77 = DIRECTION ( 'NONE',  ( -3.491481338843133355E-15, 1.224646799147353207E-16, -1.000000000000000000 ) ) ;
#78 = PERSON_AND_ORGANIZATION ( #168, #76 ) ;
#79 = DIRECTION ( 'NONE',  ( -3.491481338843133355E-15, 1.224646799147353207E-16, -1.000000000000000000 ) ) ;
#80 = APPROVAL_DATE_TIME ( #94, #158 ) ;
#81 = AXIS2_PLACEMENT_3D ( 'NONE', #3, #70, #96 ) ;
#82 = DESIGN_CONTEXT ( 'detailed design', #35, 'design' ) ;
#83 = LOCAL_TIME ( 11, 34, 57.00000000000000000, #32 ) ;
#84 = CC_DESIGN_PERSON_AND_ORGANIZATION_ASSIGNMENT ( #22, #133, ( #135 ) ) ;
#85 = CALENDAR_DATE ( 2021, 12, 11 ) ;
#86 =( NAMED_UNIT ( * ) SI_UNIT ( $, .STERADIAN. ) SOLID_ANGLE_UNIT ( ) );
#87 = PERSON_AND_ORGANIZATION_ROLE ( 'creator' ) ;
#88 = FACE_BOUND ( 'NONE', #145, .T. ) ;
#89 = PERSON_AND_ORGANIZATION ( #168, #76 ) ;
#90 = EDGE_CURVE ( 'NONE', #132, #132, #147, .T. ) ;
#91 = CARTESIAN_POINT ( 'NONE',  ( 8.728703347107833388E-14, 4.499999999999996447, 25.00000000000000000 ) ) ;
#92 = DIRECTION ( 'NONE',  ( 0.0000000000000000000, 1.000000000000000000, 0.0000000000000000000 ) ) ;
#93 = PLANE ( 'NONE',  #39 ) ;
#94 = DATE_AND_TIME ( #170, #83 ) ;
#95 = CIRCLE ( 'NONE', #97, 4.500000000000000000 ) ;
#96 = DIRECTION ( 'NONE',  ( 4.275831445896958607E-31, 1.000000000000000000, 1.224646799147353207E-16 ) ) ;
#97 = AXIS2_PLACEMENT_3D ( 'NONE', #104, #164, #23 ) ;
#98 = ADVANCED_FACE ( 'NONE', ( #201 ), #153, .T. ) ;
#99 = COORDINATED_UNIVERSAL_TIME_OFFSET ( 1, 0, .AHEAD. ) ;
#100 = ORIENTED_EDGE ( 'NONE', *, *, #138, .T. ) ;
#101 = EDGE_LOOP ( 'NONE', ( #71 ) ) ;
#102 =( LENGTH_UNIT ( ) NAMED_UNIT ( * ) SI_UNIT ( .MILLI., .METRE. ) );
#103 = AXIS2_PLACEMENT_3D ( 'NONE', #116, #162, #137 ) ;
#104 = CARTESIAN_POINT ( 'NONE',  ( 8.728703347107833388E-14, -3.061616997868383043E-15, 25.00000000000000000 ) ) ;
#105 = FACE_OUTER_BOUND ( 'NONE', #157, .T. ) ;
#106 = VERTEX_POINT ( 'NONE', #55 ) ;
#107 = CARTESIAN_POINT ( 'NONE',  ( 2.339292497024899474E-13, -8.205133554287267548E-15, 67.00000000000000000 ) ) ;
#108 = CARTESIAN_POINT ( 'NONE',  ( 0.0000000000000000000, 0.0000000000000000000, 0.0000000000000000000 ) ) ;
#109 = DATE_AND_TIME ( #154, #48 ) ;
#110 = EDGE_CURVE ( 'NONE', #9, #9, #12, .T. ) ;
#111 = CC_DESIGN_APPROVAL ( #158, ( #198 ) ) ;
#112 = ORIENTED_EDGE ( 'NONE', *, *, #174, .T. ) ;
#113 = MANIFOLD_SOLID_BREP ( 'Corps-Déplacer/Copier1[1]', #20 ) ;
#114 = APPROVAL_PERSON_ORGANIZATION ( #197, #155, #139 ) ;
#115 = CARTESIAN_POINT ( 'NONE',  ( 2.339292497024899474E-13, 3.999999999999996447, 67.00000000000000000 ) ) ;
#116 = CARTESIAN_POINT ( 'NONE',  ( 2.321835090330683366E-13, -8.143901214329899974E-15, 66.50000000000000000 ) ) ;
#117 = FACE_OUTER_BOUND ( 'NONE', #101, .T. ) ;
#118 = COORDINATED_UNIVERSAL_TIME_OFFSET ( 1, 0, .AHEAD. ) ;
#119 = AXIS2_PLACEMENT_3D ( 'NONE', #140, #11, #92 ) ;
#120 = LOCAL_TIME ( 11, 34, 57.00000000000000000, #148 ) ;
#121 = CARTESIAN_POINT ( 'NONE',  ( 8.728703347107833388E-14, 3.374459510989175239E-32, 25.00000000000000000 ) ) ;
#122 = DIRECTION ( 'NONE',  ( 0.0000000000000000000, 0.0000000000000000000, 1.000000000000000000 ) ) ;
#123 = DIRECTION ( 'NONE',  ( -3.491481338843133355E-15, 1.224646799147353207E-16, -1.000000000000000000 ) ) ;
#124 = PERSON_AND_ORGANIZATION_ROLE ( 'classification_officer' ) ;
#125 = APPROVAL ( #166, 'UNSPECIFIED' ) ;
#126 = DIRECTION ( 'NONE',  ( 0.0000000000000000000, 1.000000000000000000, 0.0000000000000000000 ) ) ;
#127 = ADVANCED_FACE ( 'NONE', ( #184 ), #93, .F. ) ;
#128 = CC_DESIGN_DATE_AND_TIME_ASSIGNMENT ( #109, #46, ( #198 ) ) ;
#129 = CONICAL_SURFACE ( 'NONE', #58, 4.000000000000004441, 0.7853981633974447263 ) ;
#130 = PLANE ( 'NONE',  #81 ) ;
#131 = EDGE_LOOP ( 'NONE', ( #2 ) ) ;
#132 = VERTEX_POINT ( 'NONE', #91 ) ;
#133 = PERSON_AND_ORGANIZATION_ROLE ( 'design_owner' ) ;
#134 = CYLINDRICAL_SURFACE ( 'NONE', #172, 4.500000000000000000 ) ;
#135 = PRODUCT ( '57107', '57107', '', ( #72 ) ) ;
#136 = PERSON_AND_ORGANIZATION ( #168, #76 ) ;
#137 = DIRECTION ( 'NONE',  ( 0.0000000000000000000, 1.000000000000000000, 0.0000000000000000000 ) ) ;
#138 = EDGE_CURVE ( 'NONE', #4, #4, #156, .T. ) ;
#139 = APPROVAL_ROLE ( '' ) ;
#140 = CARTESIAN_POINT ( 'NONE',  ( 8.728703347107833388E-14, -3.061616997868383043E-15, 25.00000000000000000 ) ) ;
#141 = SHAPE_DEFINITION_REPRESENTATION ( #27, #49 ) ;
#142 = ADVANCED_FACE ( 'NONE', ( #42, #117 ), #134, .T. ) ;
#143 = LOCAL_TIME ( 11, 34, 57.00000000000000000, #200 ) ;
#144 = ORIENTED_EDGE ( 'NONE', *, *, #90, .T. ) ;
#145 = EDGE_LOOP ( 'NONE', ( #33 ) ) ;
#146 = APPROVAL_DATE_TIME ( #75, #125 ) ;
#147 = CIRCLE ( 'NONE', #119, 4.500000000000000000 ) ;
#148 = COORDINATED_UNIVERSAL_TIME_OFFSET ( 1, 0, .AHEAD. ) ;
#149 = DIRECTION ( 'NONE',  ( -3.491481338843133355E-15, 1.224646799147353207E-16, -1.000000000000000000 ) ) ;
#150 = PERSON_AND_ORGANIZATION_ROLE ( 'creator' ) ;
#151 = DIRECTION ( 'NONE',  ( 3.491481338843133355E-15, -1.224646799147353207E-16, 1.000000000000000000 ) ) ;
#152 = SECURITY_CLASSIFICATION_LEVEL ( 'unclassified' ) ;
#153 = PLANE ( 'NONE',  #191 ) ;
#154 = CALENDAR_DATE ( 2021, 12, 11 ) ;
#155 = APPROVAL ( #161, 'UNSPECIFIED' ) ;
#156 = CIRCLE ( 'NONE', #188, 4.500000000000000000 ) ;
#157 = EDGE_LOOP ( 'NONE', ( #69 ) ) ;
#158 = APPROVAL ( #63, 'UNSPECIFIED' ) ;
#159 = CLOSED_SHELL ( 'NONE', ( #98, #142, #64 ) ) ;
#160 =( GEOMETRIC_REPRESENTATION_CONTEXT ( 3 ) GLOBAL_UNCERTAINTY_ASSIGNED_CONTEXT ( ( #194 ) ) GLOBAL_UNIT_ASSIGNED_CONTEXT ( ( #102, #195, #86 ) ) REPRESENTATION_CONTEXT ( 'NONE', 'WORKASPACE' ) );
#161 = APPROVAL_STATUS ( 'not_yet_approved' ) ;
#162 = DIRECTION ( 'NONE',  ( -3.491481338843133355E-15, 1.224646799147353207E-16, -1.000000000000000000 ) ) ;
#163 = CARTESIAN_POINT ( 'NONE',  ( 0.0000000000000000000, 0.0000000000000000000, 0.0000000000000000000 ) ) ;
#164 = DIRECTION ( 'NONE',  ( -3.491481338843133355E-15, 1.224646799147353207E-16, -1.000000000000000000 ) ) ;
#165 = DIRECTION ( 'NONE',  ( -3.491481338843133355E-15, 1.224646799147353207E-16, -1.000000000000000000 ) ) ;
#166 = APPROVAL_STATUS ( 'not_yet_approved' ) ;
#167 = DIRECTION ( 'NONE',  ( -4.275831445896958607E-31, -1.000000000000000000, -1.224646799147353207E-16 ) ) ;
#168 = PERSON ( 'UNSPECIFIED', 'UNSPECIFIED', 'UNSPECIFIED', ('UNSPECIFIED'), ('UNSPECIFIED'), ('UNSPECIFIED') ) ;
#169 = FACE_OUTER_BOUND ( 'NONE', #68, .T. ) ;
#170 = CALENDAR_DATE ( 2021, 12, 11 ) ;
#171 = CC_DESIGN_PERSON_AND_ORGANIZATION_ASSIGNMENT ( #62, #124, ( #198 ) ) ;
#172 = AXIS2_PLACEMENT_3D ( 'NONE', #108, #123, #31 ) ;
#173 = PRODUCT_DEFINITION_FORMATION_WITH_SPECIFIED_SOURCE ( 'ANY', '', #135, .NOT_KNOWN. ) ;
#174 = EDGE_CURVE ( 'NONE', #106, #106, #95, .T. ) ;
#175 = EDGE_LOOP ( 'NONE', ( #51 ) ) ;
#176 = FACE_OUTER_BOUND ( 'NONE', #16, .T. ) ;
#177 = ORIENTED_EDGE ( 'NONE', *, *, #110, .F. ) ;
#178 = FACE_OUTER_BOUND ( 'NONE', #175, .T. ) ;
#179 = AXIS2_PLACEMENT_3D ( 'NONE', #199, #44, #126 ) ;
#180 = DATE_AND_TIME ( #185, #34 ) ;
#181 = MANIFOLD_SOLID_BREP ( 'Corps-Déplacer/Copier1[2]', #159 ) ;
#182 = PLANE ( 'NONE',  #50 ) ;
#183 = DATE_AND_TIME ( #7, #120 ) ;
#184 = FACE_OUTER_BOUND ( 'NONE', #54, .T. ) ;
#185 = CALENDAR_DATE ( 2021, 12, 11 ) ;
#186 = CARTESIAN_POINT ( 'NONE',  ( 8.728703347107833388E-14, 3.374459510989175239E-32, 25.00000000000000000 ) ) ;
#187 = PERSON_AND_ORGANIZATION ( #168, #76 ) ;
#188 = AXIS2_PLACEMENT_3D ( 'NONE', #61, #77, #56 ) ;
#189 = CC_DESIGN_PERSON_AND_ORGANIZATION_ASSIGNMENT ( #136, #60, ( #173 ) ) ;
#190 = APPROVAL_ROLE ( '' ) ;
#191 = AXIS2_PLACEMENT_3D ( 'NONE', #30, #165, #202 ) ;
#192 = APPROVAL_PERSON_ORGANIZATION ( #187, #158, #190 ) ;
#193 = CC_DESIGN_PERSON_AND_ORGANIZATION_ASSIGNMENT ( #26, #87, ( #15 ) ) ;
#194 = UNCERTAINTY_MEASURE_WITH_UNIT (LENGTH_MEASURE( 1.000000000000000082E-05 ), #102, 'distance_accuracy_value', 'NONE');
#195 =( NAMED_UNIT ( * ) PLANE_ANGLE_UNIT ( ) SI_UNIT ( $, .RADIAN. ) );
#196 = DIRECTION ( 'NONE',  ( -4.275831445896958607E-31, -1.000000000000000000, -1.224646799147353207E-16 ) ) ;
#197 = PERSON_AND_ORGANIZATION ( #168, #76 ) ;
#198 = SECURITY_CLASSIFICATION ( '', '', #152 ) ;
#199 = CARTESIAN_POINT ( 'NONE',  ( 2.339292497024899474E-13, -8.205133554287267548E-15, 67.00000000000000000 ) ) ;
#200 = COORDINATED_UNIVERSAL_TIME_OFFSET ( 1, 0, .AHEAD. ) ;
#201 = FACE_OUTER_BOUND ( 'NONE', #36, .T. ) ;
#202 = DIRECTION ( 'NONE',  ( 4.275831445896958607E-31, 1.000000000000000000, 1.224646799147353207E-16 ) ) ;
#203 = ADVANCED_FACE ( 'NONE', ( #105, #88 ), #129, .T. ) ;
ENDSEC;
END-ISO-10303-21;
