ISO-10303-21;
HEADER;
FILE_DESCRIPTION (( 'STEP AP203' ),
    '1' );
FILE_NAME ('57106.step',
    '2021-11-12T10:34:56',
    ( '' ),
    ( '' ),
    'SwSTEP 2.0',
    'SolidWorks 2019',
    '' );
FILE_SCHEMA (( 'CONFIG_CONTROL_DESIGN' ));
ENDSEC;

DATA;
#1 = APPROVAL_PERSON_ORGANIZATION ( #52, #133, #55 ) ;
#2 = AXIS2_PLACEMENT_3D ( 'NONE', #138, #91, #27 ) ;
#3 = CARTESIAN_POINT ( 'NONE',  ( 8.728703347107833388E-14, 3.999999999999996447, 25.00000000000000000 ) ) ;
#4 = PERSON_AND_ORGANIZATION_ROLE ( 'design_owner' ) ;
#5 = CARTESIAN_POINT ( 'NONE',  ( 8.728703347107833388E-14, 2.999519565323710837E-32, 25.00000000000000000 ) ) ;
#6 = PERSON_AND_ORGANIZATION_ROLE ( 'creator' ) ;
#7 = CARTESIAN_POINT ( 'NONE',  ( 2.182175836776958284E-13, 3.999999999999993339, 62.50000000000000000 ) ) ;
#8 = EDGE_LOOP ( 'NONE', ( #198 ) ) ;
#9 = ADVANCED_FACE ( 'NONE', ( #122, #60 ), #78, .T. ) ;
#10 = CC_DESIGN_APPROVAL ( #133, ( #152 ) ) ;
#11 = CIRCLE ( 'NONE', #129, 4.000000000000000888 ) ;
#12 = ORIENTED_EDGE ( 'NONE', *, *, #114, .F. ) ;
#13 = VERTEX_POINT ( 'NONE', #139 ) ;
#14 = APPLICATION_CONTEXT ( 'configuration controlled 3d designs of mechanical parts and assemblies' ) ;
#15 = CARTESIAN_POINT ( 'NONE',  ( -1.710332578358783092E-30, 5.999039130647430431E-32, -4.898587196589412829E-16 ) ) ;
#16 = CARTESIAN_POINT ( 'NONE',  ( -8.551662891793915461E-31, 2.999519565323715216E-32, -2.449293598294706414E-16 ) ) ;
#17 = DIRECTION ( 'NONE',  ( -3.491481338843133355E-15, 1.224646799147353207E-16, -1.000000000000000000 ) ) ;
#18 = ADVANCED_FACE ( 'NONE', ( #61 ), #149, .T. ) ;
#19 = DATE_AND_TIME ( #103, #97 ) ;
#20 = AXIS2_PLACEMENT_3D ( 'NONE', #15, #201, #96 ) ;
#21 = AXIS2_PLACEMENT_3D ( 'NONE', #33, #95, #94 ) ;
#22 = PERSON_AND_ORGANIZATION ( #147, #65 ) ;
#23 = PERSON_AND_ORGANIZATION ( #147, #65 ) ;
#24 = PERSON_AND_ORGANIZATION_ROLE ( 'creator' ) ;
#25 = EDGE_LOOP ( 'NONE', ( #57 ) ) ;
#26 = ADVANCED_FACE ( 'NONE', ( #46 ), #175, .F. ) ;
#27 = DIRECTION ( 'NONE',  ( 4.275831445896958607E-31, 1.000000000000000000, 1.224646799147353207E-16 ) ) ;
#28 = EDGE_LOOP ( 'NONE', ( #12 ) ) ;
#29 = ORIENTED_EDGE ( 'NONE', *, *, #137, .F. ) ;
#30 = ADVANCED_BREP_SHAPE_REPRESENTATION ( '57106', ( #160, #87, #112 ), #50 ) ;
#31 = LOCAL_TIME ( 11, 34, 56.00000000000000000, #191 ) ;
#32 = APPROVAL_DATE_TIME ( #171, #145 ) ;
#33 = CARTESIAN_POINT ( 'NONE',  ( 0.0000000000000000000, 0.0000000000000000000, 0.0000000000000000000 ) ) ;
#34 = CARTESIAN_POINT ( 'NONE',  ( 2.182175836776958284E-13, -7.654042494670957804E-15, 62.50000000000000000 ) ) ;
#35 = CONICAL_SURFACE ( 'NONE', #164, 3.499999999999996891, 0.7853981633974518317 ) ;
#36 = VERTEX_POINT ( 'NONE', #98 ) ;
#37 = CC_DESIGN_SECURITY_CLASSIFICATION ( #166, ( #51 ) ) ;
#38 = DIRECTION ( 'NONE',  ( 1.000000000000000000, 0.0000000000000000000, 0.0000000000000000000 ) ) ;
#39 = VERTEX_POINT ( 'NONE', #3 ) ;
#40 = APPROVAL_PERSON_ORGANIZATION ( #196, #145, #123 ) ;
#41 = CC_DESIGN_DATE_AND_TIME_ASSIGNMENT ( #19, #54, ( #152 ) ) ;
#42 = COORDINATED_UNIVERSAL_TIME_OFFSET ( 1, 0, .AHEAD. ) ;
#43 =( LENGTH_UNIT ( ) NAMED_UNIT ( * ) SI_UNIT ( .MILLI., .METRE. ) );
#44 =( NAMED_UNIT ( * ) PLANE_ANGLE_UNIT ( ) SI_UNIT ( $, .RADIAN. ) );
#45 = DIRECTION ( 'NONE',  ( -3.491481338843133355E-15, 1.224646799147353207E-16, -1.000000000000000000 ) ) ;
#46 = FACE_OUTER_BOUND ( 'NONE', #182, .T. ) ;
#47 = DIRECTION ( 'NONE',  ( -3.491481338843133355E-15, 1.224646799147353207E-16, -1.000000000000000000 ) ) ;
#48 = DIRECTION ( 'NONE',  ( 4.275831445896958607E-31, 1.000000000000000000, 1.224646799147353207E-16 ) ) ;
#49 = LOCAL_TIME ( 11, 34, 56.00000000000000000, #59 ) ;
#50 =( GEOMETRIC_REPRESENTATION_CONTEXT ( 3 ) GLOBAL_UNCERTAINTY_ASSIGNED_CONTEXT ( ( #176 ) ) GLOBAL_UNIT_ASSIGNED_CONTEXT ( ( #43, #44, #134 ) ) REPRESENTATION_CONTEXT ( 'NONE', 'WORKASPACE' ) );
#51 = PRODUCT_DEFINITION_FORMATION_WITH_SPECIFIED_SOURCE ( 'ANY', '', #58, .NOT_KNOWN. ) ;
#52 = PERSON_AND_ORGANIZATION ( #147, #65 ) ;
#53 = CALENDAR_DATE ( 2021, 12, 11 ) ;
#54 = DATE_TIME_ROLE ( 'creation_date' ) ;
#55 = APPROVAL_ROLE ( '' ) ;
#56 = PERSON_AND_ORGANIZATION ( #147, #65 ) ;
#57 = ORIENTED_EDGE ( 'NONE', *, *, #180, .T. ) ;
#58 = PRODUCT ( '57106', '57106', '', ( #179 ) ) ;
#59 = COORDINATED_UNIVERSAL_TIME_OFFSET ( 1, 0, .AHEAD. ) ;
#60 = FACE_OUTER_BOUND ( 'NONE', #135, .T. ) ;
#61 = FACE_OUTER_BOUND ( 'NONE', #28, .T. ) ;
#62 = CARTESIAN_POINT ( 'NONE',  ( 8.728703347107833388E-14, 2.999519565323710837E-32, 25.00000000000000000 ) ) ;
#63 = FACE_OUTER_BOUND ( 'NONE', #74, .T. ) ;
#64 = FACE_OUTER_BOUND ( 'NONE', #25, .T. ) ;
#65 = ORGANIZATION ( 'UNSPECIFIED', 'UNSPECIFIED', '' ) ;
#66 = AXIS2_PLACEMENT_3D ( 'NONE', #5, #71, #142 ) ;
#67 = AXIS2_PLACEMENT_3D ( 'NONE', #141, #156, #80 ) ;
#68 = CC_DESIGN_PERSON_AND_ORGANIZATION_ASSIGNMENT ( #118, #88, ( #51 ) ) ;
#69 = DATE_AND_TIME ( #100, #136 ) ;
#70 = APPLICATION_PROTOCOL_DEFINITION ( 'international standard', 'config_control_design', 1994, #195 ) ;
#71 = DIRECTION ( 'NONE',  ( 3.491481338843133355E-15, -1.224646799147353207E-16, 1.000000000000000000 ) ) ;
#72 = CLOSED_SHELL ( 'NONE', ( #162, #9, #113, #26 ) ) ;
#73 = ORIENTED_EDGE ( 'NONE', *, *, #174, .F. ) ;
#74 = EDGE_LOOP ( 'NONE', ( #89 ) ) ;
#75 = SHAPE_DEFINITION_REPRESENTATION ( #172, #30 ) ;
#76 = CIRCLE ( 'NONE', #67, 3.499999999999996891 ) ;
#77 = EDGE_CURVE ( 'NONE', #36, #36, #151, .T. ) ;
#78 = CYLINDRICAL_SURFACE ( 'NONE', #2, 4.000000000000000000 ) ;
#79 = DIRECTION ( 'NONE',  ( -3.491481338843133355E-15, 1.224646799147353207E-16, -1.000000000000000000 ) ) ;
#80 = DIRECTION ( 'NONE',  ( 0.0000000000000000000, 1.000000000000000000, 0.0000000000000000000 ) ) ;
#81 = DIRECTION ( 'NONE',  ( -3.491481338843133355E-15, 1.224646799147353207E-16, -1.000000000000000000 ) ) ;
#82 = DIRECTION ( 'NONE',  ( 0.0000000000000000000, 1.000000000000000000, 0.0000000000000000000 ) ) ;
#83 = DESIGN_CONTEXT ( 'detailed design', #14, 'design' ) ;
#84 = APPROVAL_ROLE ( '' ) ;
#85 = CC_DESIGN_APPROVAL ( #145, ( #166 ) ) ;
#86 = CALENDAR_DATE ( 2021, 12, 11 ) ;
#87 = MANIFOLD_SOLID_BREP ( 'Corps-Déplacer/Copier1[2]', #99 ) ;
#88 = PERSON_AND_ORGANIZATION_ROLE ( 'design_supplier' ) ;
#89 = ORIENTED_EDGE ( 'NONE', *, *, #114, .T. ) ;
#90 = VERTEX_POINT ( 'NONE', #177 ) ;
#91 = DIRECTION ( 'NONE',  ( -3.491481338843133355E-15, 1.224646799147353207E-16, -1.000000000000000000 ) ) ;
#92 = ORIENTED_EDGE ( 'NONE', *, *, #77, .F. ) ;
#93 = AXIS2_PLACEMENT_3D ( 'NONE', #187, #47, #140 ) ;
#94 = DIRECTION ( 'NONE',  ( 4.275831445896958607E-31, 1.000000000000000000, 1.224646799147353207E-16 ) ) ;
#95 = DIRECTION ( 'NONE',  ( -3.491481338843133355E-15, 1.224646799147353207E-16, -1.000000000000000000 ) ) ;
#96 = DIRECTION ( 'NONE',  ( 4.275831445896958607E-31, 1.000000000000000000, 1.224646799147353207E-16 ) ) ;
#97 = LOCAL_TIME ( 11, 34, 56.00000000000000000, #181 ) ;
#98 = CARTESIAN_POINT ( 'NONE',  ( 3.421138828918010427E-46, 4.000000000000000000, 0.0000000000000000000 ) ) ;
#99 = CLOSED_SHELL ( 'NONE', ( #200, #143, #18 ) ) ;
#100 = CALENDAR_DATE ( 2021, 12, 11 ) ;
#101 = COORDINATED_UNIVERSAL_TIME_OFFSET ( 1, 0, .AHEAD. ) ;
#102 = APPROVAL_STATUS ( 'not_yet_approved' ) ;
#103 = CALENDAR_DATE ( 2021, 12, 11 ) ;
#104 = EDGE_LOOP ( 'NONE', ( #120 ) ) ;
#105 = CALENDAR_DATE ( 2021, 12, 11 ) ;
#106 = ORIENTED_EDGE ( 'NONE', *, *, #174, .T. ) ;
#107 = CYLINDRICAL_SURFACE ( 'NONE', #21, 4.000000000000000000 ) ;
#108 = CC_DESIGN_PERSON_AND_ORGANIZATION_ASSIGNMENT ( #131, #167, ( #166 ) ) ;
#109 = DIRECTION ( 'NONE',  ( 4.275831445896958607E-31, 1.000000000000000000, 1.224646799147353207E-16 ) ) ;
#110 = FACE_OUTER_BOUND ( 'NONE', #8, .T. ) ;
#111 = FACE_BOUND ( 'NONE', #155, .T. ) ;
#112 = AXIS2_PLACEMENT_3D ( 'NONE', #193, #169, #38 ) ;
#113 = ADVANCED_FACE ( 'NONE', ( #199, #111 ), #35, .T. ) ;
#114 = EDGE_CURVE ( 'NONE', #13, #13, #121, .T. ) ;
#115 = PERSON_AND_ORGANIZATION ( #147, #65 ) ;
#116 = DATE_AND_TIME ( #53, #31 ) ;
#117 = CC_DESIGN_DATE_AND_TIME_ASSIGNMENT ( #116, #150, ( #166 ) ) ;
#118 = PERSON_AND_ORGANIZATION ( #147, #65 ) ;
#119 = EDGE_LOOP ( 'NONE', ( #29 ) ) ;
#120 = ORIENTED_EDGE ( 'NONE', *, *, #137, .T. ) ;
#121 = CIRCLE ( 'NONE', #189, 4.000000000000000000 ) ;
#122 = FACE_OUTER_BOUND ( 'NONE', #104, .T. ) ;
#123 = APPROVAL_ROLE ( '' ) ;
#124 = PRODUCT_RELATED_PRODUCT_CATEGORY ( 'detail', '', ( #58 ) ) ;
#125 = CARTESIAN_POINT ( 'NONE',  ( 2.199633243471174140E-13, 2.624579619658236582E-32, 63.00000000000000000 ) ) ;
#126 = FACE_OUTER_BOUND ( 'NONE', #168, .T. ) ;
#127 = DIRECTION ( 'NONE',  ( -4.275831445896958607E-31, -1.000000000000000000, -1.224646799147353207E-16 ) ) ;
#128 = APPROVAL_PERSON_ORGANIZATION ( #56, #159, #84 ) ;
#129 = AXIS2_PLACEMENT_3D ( 'NONE', #34, #45, #202 ) ;
#130 = CC_DESIGN_APPROVAL ( #159, ( #51 ) ) ;
#131 = PERSON_AND_ORGANIZATION ( #147, #65 ) ;
#132 = APPROVAL_STATUS ( 'not_yet_approved' ) ;
#133 = APPROVAL ( #102, 'UNSPECIFIED' ) ;
#134 =( NAMED_UNIT ( * ) SI_UNIT ( $, .STERADIAN. ) SOLID_ANGLE_UNIT ( ) );
#135 = EDGE_LOOP ( 'NONE', ( #154 ) ) ;
#136 = LOCAL_TIME ( 11, 34, 56.00000000000000000, #101 ) ;
#137 = EDGE_CURVE ( 'NONE', #148, #148, #11, .T. ) ;
#138 = CARTESIAN_POINT ( 'NONE',  ( 0.0000000000000000000, 0.0000000000000000000, 0.0000000000000000000 ) ) ;
#139 = CARTESIAN_POINT ( 'NONE',  ( 8.728703347107833388E-14, 3.999999999999996447, 25.00000000000000000 ) ) ;
#140 = DIRECTION ( 'NONE',  ( 0.0000000000000000000, 1.000000000000000000, 0.0000000000000000000 ) ) ;
#141 = CARTESIAN_POINT ( 'NONE',  ( 2.199633243471174140E-13, -7.715274834628325378E-15, 63.00000000000000000 ) ) ;
#142 = DIRECTION ( 'NONE',  ( -4.275831445896958607E-31, -1.000000000000000000, -1.224646799147353207E-16 ) ) ;
#143 = ADVANCED_FACE ( 'NONE', ( #63, #126 ), #107, .T. ) ;
#144 = DATE_AND_TIME ( #86, #170 ) ;
#145 = APPROVAL ( #194, 'UNSPECIFIED' ) ;
#146 = APPROVAL_DATE_TIME ( #144, #159 ) ;
#147 = PERSON ( 'UNSPECIFIED', 'UNSPECIFIED', 'UNSPECIFIED', ('UNSPECIFIED'), ('UNSPECIFIED'), ('UNSPECIFIED') ) ;
#148 = VERTEX_POINT ( 'NONE', #7 ) ;
#149 = PLANE ( 'NONE',  #66 ) ;
#150 = DATE_TIME_ROLE ( 'classification_date' ) ;
#151 = CIRCLE ( 'NONE', #20, 4.000000000000000000 ) ;
#152 = PRODUCT_DEFINITION ( 'UNKNOWN', '', #51, #83 ) ;
#153 = SECURITY_CLASSIFICATION_LEVEL ( 'unclassified' ) ;
#154 = ORIENTED_EDGE ( 'NONE', *, *, #180, .F. ) ;
#155 = EDGE_LOOP ( 'NONE', ( #106 ) ) ;
#156 = DIRECTION ( 'NONE',  ( -3.491481338843133355E-15, 1.224646799147353207E-16, -1.000000000000000000 ) ) ;
#157 = DIRECTION ( 'NONE',  ( 3.491481338843133355E-15, -1.224646799147353207E-16, 1.000000000000000000 ) ) ;
#158 = PLANE ( 'NONE',  #178 ) ;
#159 = APPROVAL ( #132, 'UNSPECIFIED' ) ;
#160 = MANIFOLD_SOLID_BREP ( 'Corps-Déplacer/Copier1[1]', #72 ) ;
#161 = CARTESIAN_POINT ( 'NONE',  ( 2.199633243471174140E-13, -7.715274834628325378E-15, 63.00000000000000000 ) ) ;
#162 = ADVANCED_FACE ( 'NONE', ( #64 ), #188, .F. ) ;
#163 = AXIS2_PLACEMENT_3D ( 'NONE', #62, #157, #127 ) ;
#164 = AXIS2_PLACEMENT_3D ( 'NONE', #161, #79, #173 ) ;
#165 = APPROVAL_DATE_TIME ( #69, #133 ) ;
#166 = SECURITY_CLASSIFICATION ( '', '', #153 ) ;
#167 = PERSON_AND_ORGANIZATION_ROLE ( 'classification_officer' ) ;
#168 = EDGE_LOOP ( 'NONE', ( #92 ) ) ;
#169 = DIRECTION ( 'NONE',  ( 0.0000000000000000000, 0.0000000000000000000, 1.000000000000000000 ) ) ;
#170 = LOCAL_TIME ( 11, 34, 56.00000000000000000, #42 ) ;
#171 = DATE_AND_TIME ( #105, #49 ) ;
#172 = PRODUCT_DEFINITION_SHAPE ( 'NONE', 'NONE',  #152 ) ;
#173 = DIRECTION ( 'NONE',  ( 0.0000000000000000000, 1.000000000000000000, 0.0000000000000000000 ) ) ;
#174 = EDGE_CURVE ( 'NONE', #90, #90, #76, .T. ) ;
#175 = PLANE ( 'NONE',  #185 ) ;
#176 = UNCERTAINTY_MEASURE_WITH_UNIT (LENGTH_MEASURE( 1.000000000000000082E-05 ), #43, 'distance_accuracy_value', 'NONE');
#177 = CARTESIAN_POINT ( 'NONE',  ( 2.199633243471174140E-13, 3.499999999999989342, 63.00000000000000000 ) ) ;
#178 = AXIS2_PLACEMENT_3D ( 'NONE', #16, #81, #48 ) ;
#179 = MECHANICAL_CONTEXT ( 'NONE', #195, 'mechanical' ) ;
#180 = EDGE_CURVE ( 'NONE', #39, #39, #197, .T. ) ;
#181 = COORDINATED_UNIVERSAL_TIME_OFFSET ( 1, 0, .AHEAD. ) ;
#182 = EDGE_LOOP ( 'NONE', ( #73 ) ) ;
#183 = CC_DESIGN_PERSON_AND_ORGANIZATION_ASSIGNMENT ( #23, #24, ( #51 ) ) ;
#184 = DIRECTION ( 'NONE',  ( -3.491481338843133355E-15, 1.224646799147353207E-16, -1.000000000000000000 ) ) ;
#185 = AXIS2_PLACEMENT_3D ( 'NONE', #125, #184, #109 ) ;
#186 = CC_DESIGN_PERSON_AND_ORGANIZATION_ASSIGNMENT ( #115, #4, ( #58 ) ) ;
#187 = CARTESIAN_POINT ( 'NONE',  ( 8.728703347107833388E-14, -3.061616997868383043E-15, 25.00000000000000000 ) ) ;
#188 = PLANE ( 'NONE',  #163 ) ;
#189 = AXIS2_PLACEMENT_3D ( 'NONE', #203, #17, #82 ) ;
#190 = APPLICATION_PROTOCOL_DEFINITION ( 'international standard', 'config_control_design', 1994, #14 ) ;
#191 = COORDINATED_UNIVERSAL_TIME_OFFSET ( 1, 0, .AHEAD. ) ;
#192 = CC_DESIGN_PERSON_AND_ORGANIZATION_ASSIGNMENT ( #22, #6, ( #152 ) ) ;
#193 = CARTESIAN_POINT ( 'NONE',  ( 0.0000000000000000000, 0.0000000000000000000, 0.0000000000000000000 ) ) ;
#194 = APPROVAL_STATUS ( 'not_yet_approved' ) ;
#195 = APPLICATION_CONTEXT ( 'configuration controlled 3d designs of mechanical parts and assemblies' ) ;
#196 = PERSON_AND_ORGANIZATION ( #147, #65 ) ;
#197 = CIRCLE ( 'NONE', #93, 4.000000000000000000 ) ;
#198 = ORIENTED_EDGE ( 'NONE', *, *, #77, .T. ) ;
#199 = FACE_OUTER_BOUND ( 'NONE', #119, .T. ) ;
#200 = ADVANCED_FACE ( 'NONE', ( #110 ), #158, .T. ) ;
#201 = DIRECTION ( 'NONE',  ( -3.491481338843133355E-15, 1.224646799147353207E-16, -1.000000000000000000 ) ) ;
#202 = DIRECTION ( 'NONE',  ( 0.0000000000000000000, 1.000000000000000000, 0.0000000000000000000 ) ) ;
#203 = CARTESIAN_POINT ( 'NONE',  ( 8.728703347107833388E-14, -3.061616997868383043E-15, 25.00000000000000000 ) ) ;
ENDSEC;
END-ISO-10303-21;
